  0
SECTION
  2
HEADER
  9
$ACADVER
  1
AC1018
  9
$ACADMAINTVER
 70
     0
  9
$DWGCODEPAGE
  3
ANSI_1252
  9
$INSBASE
 10
0.0
 20
0.0
 30
0.0
  9
$EXTMIN
 10
-19.5
 20
-17.5674920254981
 30
-0.1299920254981148
  9
$EXTMAX
 10
19.5
 20
23.99999999999999
 30
32.13952198462911
  9
$LIMMIN
 10
0.0
 20
0.0
  9
$LIMMAX
 10
12.0
 20
9.0
  9
$ORTHOMODE
 70
     0
  9
$REGENMODE
 70
     1
  9
$FILLMODE
 70
     1
  9
$QTEXTMODE
 70
     0
  9
$MIRRTEXT
 70
     1
  9
$LTSCALE
 40
0.0393700787401575
  9
$ATTMODE
 70
     1
  9
$TEXTSIZE
 40
0.2
  9
$TRACEWID
 40
0.05
  9
$TEXTSTYLE
  7
Standard
  9
$CLAYER
  8
0
  9
$CELTYPE
  6
ByLayer
  9
$CECOLOR
 62
   256
  9
$CELTSCALE
 40
1.0
  9
$DISPSILH
 70
     0
  9
$DIMSCALE
 40
1.0
  9
$DIMASZ
 40
0.18
  9
$DIMEXO
 40
0.0625
  9
$DIMDLI
 40
0.38
  9
$DIMRND
 40
0.0
  9
$DIMDLE
 40
0.0
  9
$DIMEXE
 40
0.18
  9
$DIMTP
 40
0.0
  9
$DIMTM
 40
0.0
  9
$DIMTXT
 40
0.18
  9
$DIMCEN
 40
0.09
  9
$DIMTSZ
 40
0.0
  9
$DIMTOL
 70
     0
  9
$DIMLIM
 70
     0
  9
$DIMTIH
 70
     1
  9
$DIMTOH
 70
     1
  9
$DIMSE1
 70
     0
  9
$DIMSE2
 70
     0
  9
$DIMTAD
 70
     0
  9
$DIMZIN
 70
     0
  9
$DIMBLK
  1

  9
$DIMASO
 70
     1
  9
$DIMSHO
 70
     1
  9
$DIMPOST
  1

  9
$DIMAPOST
  1

  9
$DIMALT
 70
     0
  9
$DIMALTD
 70
     2
  9
$DIMALTF
 40
25.4
  9
$DIMLFAC
 40
1.0
  9
$DIMTOFL
 70
     0
  9
$DIMTVP
 40
0.0
  9
$DIMTIX
 70
     0
  9
$DIMSOXD
 70
     0
  9
$DIMSAH
 70
     0
  9
$DIMBLK1
  1

  9
$DIMBLK2
  1

  9
$DIMSTYLE
  2
Standard
  9
$DIMCLRD
 70
     0
  9
$DIMCLRE
 70
     0
  9
$DIMCLRT
 70
     0
  9
$DIMTFAC
 40
1.0
  9
$DIMGAP
 40
0.09
  9
$DIMJUST
 70
     0
  9
$DIMSD1
 70
     0
  9
$DIMSD2
 70
     0
  9
$DIMTOLJ
 70
     1
  9
$DIMTZIN
 70
     0
  9
$DIMALTZ
 70
     0
  9
$DIMALTTZ
 70
     0
  9
$DIMUPT
 70
     0
  9
$DIMDEC
 70
     4
  9
$DIMTDEC
 70
     4
  9
$DIMALTU
 70
     2
  9
$DIMALTTD
 70
     2
  9
$DIMTXSTY
  7
Standard
  9
$DIMAUNIT
 70
     0
  9
$DIMADEC
 70
     0
  9
$DIMALTRND
 40
0.0
  9
$DIMAZIN
 70
     0
  9
$DIMDSEP
 70
    46
  9
$DIMATFIT
 70
     3
  9
$DIMFRAC
 70
     0
  9
$DIMLDRBLK
  1

  9
$DIMLUNIT
 70
     2
  9
$DIMLWD
 70
    -2
  9
$DIMLWE
 70
    -2
  9
$DIMTMOVE
 70
     2
  9
$LUNITS
 70
     2
  9
$LUPREC
 70
     2
  9
$SKETCHINC
 40
0.1
  9
$FILLETRAD
 40
0.5
  9
$AUNITS
 70
     0
  9
$AUPREC
 70
     0
  9
$MENU
  1
.
  9
$ELEVATION
 40
0.0
  9
$PELEVATION
 40
0.0
  9
$THICKNESS
 40
0.0
  9
$LIMCHECK
 70
     0
  9
$CHAMFERA
 40
0.5
  9
$CHAMFERB
 40
0.5
  9
$CHAMFERC
 40
1.0
  9
$CHAMFERD
 40
0.0
  9
$SKPOLY
 70
     0
  9
$TDCREATE
 40
2455776.398858739
  9
$TDUCREATE
 40
2455776.607192072
  9
$TDUPDATE
 40
2455776.39885875
  9
$TDUUPDATE
 40
2455776.607192083
  9
$TDINDWG
 40
0.0000000116
  9
$TDUSRTIMER
 40
0.0000000116
  9
$USRTIMER
 70
     1
  9
$ANGBASE
 50
0.0
  9
$ANGDIR
 70
     0
  9
$PDMODE
 70
     0
  9
$PDSIZE
 40
0.0
  9
$PLINEWID
 40
0.0
  9
$SPLFRAME
 70
     0
  9
$SPLINETYPE
 70
     6
  9
$SPLINESEGS
 70
     8
  9
$HANDSEED
  5
E8
  9
$SURFTAB1
 70
     6
  9
$SURFTAB2
 70
     6
  9
$SURFTYPE
 70
     6
  9
$SURFU
 70
     6
  9
$SURFV
 70
     6
  9
$UCSBASE
  2

  9
$UCSNAME
  2

  9
$UCSORG
 10
0.0
 20
0.0
 30
0.0
  9
$UCSXDIR
 10
1.0
 20
0.0
 30
0.0
  9
$UCSYDIR
 10
0.0
 20
1.0
 30
0.0
  9
$UCSORTHOREF
  2

  9
$UCSORTHOVIEW
 70
     0
  9
$UCSORGTOP
 10
0.0
 20
0.0
 30
0.0
  9
$UCSORGBOTTOM
 10
0.0
 20
0.0
 30
0.0
  9
$UCSORGLEFT
 10
0.0
 20
0.0
 30
0.0
  9
$UCSORGRIGHT
 10
0.0
 20
0.0
 30
0.0
  9
$UCSORGFRONT
 10
0.0
 20
0.0
 30
0.0
  9
$UCSORGBACK
 10
0.0
 20
0.0
 30
0.0
  9
$PUCSBASE
  2

  9
$PUCSNAME
  2

  9
$PUCSORG
 10
0.0
 20
0.0
 30
0.0
  9
$PUCSXDIR
 10
1.0
 20
0.0
 30
0.0
  9
$PUCSYDIR
 10
0.0
 20
1.0
 30
0.0
  9
$PUCSORTHOREF
  2

  9
$PUCSORTHOVIEW
 70
     0
  9
$PUCSORGTOP
 10
0.0
 20
0.0
 30
0.0
  9
$PUCSORGBOTTOM
 10
0.0
 20
0.0
 30
0.0
  9
$PUCSORGLEFT
 10
0.0
 20
0.0
 30
0.0
  9
$PUCSORGRIGHT
 10
0.0
 20
0.0
 30
0.0
  9
$PUCSORGFRONT
 10
0.0
 20
0.0
 30
0.0
  9
$PUCSORGBACK
 10
0.0
 20
0.0
 30
0.0
  9
$USERI1
 70
     0
  9
$USERI2
 70
     0
  9
$USERI3
 70
     0
  9
$USERI4
 70
     0
  9
$USERI5
 70
     0
  9
$USERR1
 40
0.0
  9
$USERR2
 40
0.0
  9
$USERR3
 40
0.0
  9
$USERR4
 40
0.0
  9
$USERR5
 40
0.0
  9
$WORLDVIEW
 70
     1
  9
$SHADEDGE
 70
     3
  9
$SHADEDIF
 70
    70
  9
$TILEMODE
 70
     1
  9
$MAXACTVP
 70
    64
  9
$PINSBASE
 10
0.0
 20
0.0
 30
0.0
  9
$PLIMCHECK
 70
     0
  9
$PEXTMIN
 10
1.000000000000000E+20
 20
1.000000000000000E+20
 30
1.000000000000000E+20
  9
$PEXTMAX
 10
-1.000000000000000E+20
 20
-1.000000000000000E+20
 30
-1.000000000000000E+20
  9
$PLIMMIN
 10
0.0
 20
0.0
  9
$PLIMMAX
 10
12.0
 20
9.0
  9
$UNITMODE
 70
     0
  9
$VISRETAIN
 70
     1
  9
$PLINEGEN
 70
     0
  9
$PSLTSCALE
 70
     1
  9
$TREEDEPTH
 70
  3020
  9
$CMLSTYLE
  2
Standard
  9
$CMLJUST
 70
     0
  9
$CMLSCALE
 40
1.0
  9
$PROXYGRAPHICS
 70
     1
  9
$MEASUREMENT
 70
     0
  9
$CELWEIGHT
370
    -1
  9
$ENDCAPS
280
     0
  9
$JOINSTYLE
280
     0
  9
$LWDISPLAY
290
     0
  9
$INSUNITS
 70
     1
  9
$HYPERLINKBASE
  1

  9
$STYLESHEET
  1

  9
$XEDIT
290
     1
  9
$CEPSNTYPE
380
     0
  9
$PSTYLEMODE
290
     1
  9
$FINGERPRINTGUID
  2
{9624540F-F3D9-46E7-AB18-4274BAF4482F}
  9
$VERSIONGUID
  2
{FAEB1C32-E019-11D5-929B-00C0DF256EC4}
  9
$EXTNAMES
290
     1
  9
$PSVPSCALE
 40
0.0
  9
$OLESTARTUP
290
     0
  9
$SORTENTS
280
   127
  9
$INDEXCTL
280
     0
  9
$HIDETEXT
280
     1
  9
$XCLIPFRAME
290
     0
  9
$HALOGAP
280
     0
  9
$OBSCOLOR
 70
   257
  9
$OBSLTYPE
280
     0
  9
$INTERSECTIONDISPLAY
280
     0
  9
$INTERSECTIONCOLOR
 70
   257
  9
$DIMASSOC
280
     2
  9
$PROJECTNAME
  1

  0
ENDSEC
  0
SECTION
  2
CLASSES
  0
CLASS
  1
ACDBDICTIONARYWDFLT
  2
AcDbDictionaryWithDefault
  3
ObjectDBX Classes
 90
        0
 91
        4
280
     0
281
     0
  0
CLASS
  1
VISUALSTYLE
  2
AcDbVisualStyle
  3
ObjectDBX Classes
 90
     4095
 91
        4
280
     0
281
     0
  0
ENDSEC
  0
SECTION
  2
TABLES
  0
TABLE
  2
VPORT
  5
8
330
0
100
AcDbSymbolTable
 70
     1
  0
VPORT
  5
29
330
8
100
AcDbSymbolTableRecord
100
AcDbViewportTableRecord
  2
*Active
 70
     0
 10
0.0
 20
0.0
 11
1.0
 21
1.0
 12
0.0
 22
3.216253987250944
 13
0.0
 23
0.0
 14
0.5
 24
0.5
 15
0.5
 25
0.5
 16
0.0
 26
0.0
 36
1.0
 17
0.0
 27
0.0
 37
0.0
 40
42.39884186600805
 41
0.9382331745219762
 42
50.0
 43
0.0
 44
0.0
 50
0.0
 51
0.0
 71
     0
 72
   100
 73
     1
 74
     3
 75
     0
 76
     0
 77
     0
 78
     0
281
     0
 65
     1
110
0.0
120
0.0
130
0.0
111
1.0
121
0.0
131
0.0
112
0.0
122
1.0
132
0.0
 79
     0
146
0.0
  0
ENDTAB
  0
TABLE
  2
LTYPE
  5
5
330
0
100
AcDbSymbolTable
 70
     1
  0
LTYPE
  5
14
330
5
100
AcDbSymbolTableRecord
100
AcDbLinetypeTableRecord
  2
ByBlock
 70
     0
  3

 72
    65
 73
     0
 40
0.0
  0
LTYPE
  5
15
330
5
100
AcDbSymbolTableRecord
100
AcDbLinetypeTableRecord
  2
ByLayer
 70
     0
  3

 72
    65
 73
     0
 40
0.0
  0
LTYPE
  5
16
330
5
100
AcDbSymbolTableRecord
100
AcDbLinetypeTableRecord
  2
Continuous
 70
     0
  3
Solid line
 72
    65
 73
     0
 40
0.0
  0
ENDTAB
  0
TABLE
  2
LAYER
  5
2
330
0
100
AcDbSymbolTable
 70
     2
  0
LAYER
  5
10
330
2
100
AcDbSymbolTableRecord
100
AcDbLayerTableRecord
  2
0
 70
     0
 62
     7
  6
Continuous
370
    -3
390
F
  0
LAYER
  5
3B
330
2
100
AcDbSymbolTableRecord
100
AcDbLayerTableRecord
  2
Layer 01
 70
     0
 62
     1
  6
Continuous
370
    -3
390
F
  0
ENDTAB
  0
TABLE
  2
STYLE
  5
3
330
0
100
AcDbSymbolTable
 70
     1
  0
STYLE
  5
11
330
3
100
AcDbSymbolTableRecord
100
AcDbTextStyleTableRecord
  2
Standard
 70
     0
 40
0.0
 41
1.0
 50
0.0
 71
     0
 42
0.2
  3
txt
  4

  0
ENDTAB
  0
TABLE
  2
VIEW
  5
6
330
0
100
AcDbSymbolTable
 70
     0
  0
ENDTAB
  0
TABLE
  2
UCS
  5
7
330
0
100
AcDbSymbolTable
 70
     0
  0
ENDTAB
  0
TABLE
  2
APPID
  5
9
330
0
100
AcDbSymbolTable
 70
     1
  0
APPID
  5
12
330
9
100
AcDbSymbolTableRecord
100
AcDbRegAppTableRecord
  2
ACAD
 70
     0
  0
ENDTAB
  0
TABLE
  2
DIMSTYLE
  5
A
330
0
100
AcDbSymbolTable
 70
     1
100
AcDbDimStyleTable
  0
DIMSTYLE
105
27
330
A
100
AcDbSymbolTableRecord
100
AcDbDimStyleTableRecord
  2
Standard
 70
     0
340
11
  0
ENDTAB
  0
TABLE
  2
BLOCK_RECORD
  5
1
330
0
100
AcDbSymbolTable
 70
     1
  0
BLOCK_RECORD
  5
1F
330
1
100
AcDbSymbolTableRecord
100
AcDbBlockTableRecord
  2
*Model_Space
340
22
  0
BLOCK_RECORD
  5
1B
330
1
100
AcDbSymbolTableRecord
100
AcDbBlockTableRecord
  2
*Paper_Space
340
1E
  0
BLOCK_RECORD
  5
23
330
1
100
AcDbSymbolTableRecord
100
AcDbBlockTableRecord
  2
*Paper_Space0
340
26
  0
ENDTAB
  0
ENDSEC
  0
SECTION
  2
BLOCKS
  0
BLOCK
  5
20
330
1F
100
AcDbEntity
  8
0
100
AcDbBlockBegin
  2
*Model_Space
 70
     0
 10
0.0
 20
0.0
 30
0.0
  3
*Model_Space
  1

  0
ENDBLK
  5
21
330
1F
100
AcDbEntity
  8
0
100
AcDbBlockEnd
  0
BLOCK
  5
1C
330
1B
100
AcDbEntity
 67
     1
  8
0
100
AcDbBlockBegin
  2
*Paper_Space
 70
     0
 10
0.0
 20
0.0
 30
0.0
  3
*Paper_Space
  1

  0
ENDBLK
  5
1D
330
1B
100
AcDbEntity
 67
     1
  8
0
100
AcDbBlockEnd
  0
BLOCK
  5
24
330
23
100
AcDbEntity
  8
0
100
AcDbBlockBegin
  2
*Paper_Space0
 70
     0
 10
0.0
 20
0.0
 30
0.0
  3
*Paper_Space0
  1

  0
ENDBLK
  5
25
330
23
100
AcDbEntity
  8
0
100
AcDbBlockEnd
  0
ENDSEC
  0
SECTION
  2
ENTITIES
  0
LINE
  5
3C
330
1F
100
AcDbEntity
  8
Layer 01
100
AcDbLine
 10
-19.5
 20
19.99999999999999
 30
0.0
 11
-19.5
 21
23.99999999999999
 31
0.0
  0
LINE
  5
3D
330
1F
100
AcDbEntity
  8
Layer 01
100
AcDbLine
 10
-19.5
 20
23.99999999999999
 30
0.0
 11
-16.5
 21
23.99999999999999
 31
0.0
  0
LINE
  5
3E
330
1F
100
AcDbEntity
  8
Layer 01
100
AcDbLine
 10
-16.5
 20
23.99999999999999
 30
0.0
 11
-16.5
 21
19.99999999999999
 31
0.0
  0
LINE
  5
3F
330
1F
100
AcDbEntity
  8
Layer 01
100
AcDbLine
 10
-16.5
 20
19.99999999999999
 30
0.0
 11
-19.5
 21
19.99999999999999
 31
0.0
  0
LINE
  5
40
330
1F
100
AcDbEntity
  8
Layer 01
100
AcDbLine
 10
-19.5
 20
19.99999999999999
 30
0.25
 11
-19.5
 21
23.99999999999999
 31
0.25
  0
LINE
  5
41
330
1F
100
AcDbEntity
  8
Layer 01
100
AcDbLine
 10
-19.5
 20
23.99999999999999
 30
0.25
 11
-16.5
 21
23.99999999999999
 31
0.25
  0
LINE
  5
42
330
1F
100
AcDbEntity
  8
Layer 01
100
AcDbLine
 10
-16.5
 20
23.99999999999999
 30
0.25
 11
-16.5
 21
19.99999999999999
 31
0.25
  0
LINE
  5
43
330
1F
100
AcDbEntity
  8
Layer 01
100
AcDbLine
 10
-16.5
 20
19.99999999999999
 30
0.25
 11
-19.5
 21
19.99999999999999
 31
0.25
  0
LINE
  5
44
330
1F
100
AcDbEntity
  8
Layer 01
100
AcDbLine
 10
-19.5
 20
19.99999999999999
 30
0.0
 11
-19.5
 21
19.99999999999999
 31
0.25
  0
LINE
  5
45
330
1F
100
AcDbEntity
  8
Layer 01
100
AcDbLine
 10
-19.5
 20
23.99999999999999
 30
0.0
 11
-19.5
 21
23.99999999999999
 31
0.25
  0
LINE
  5
46
330
1F
100
AcDbEntity
  8
Layer 01
100
AcDbLine
 10
-16.5
 20
23.99999999999999
 30
0.0
 11
-16.5
 21
23.99999999999999
 31
0.25
  0
LINE
  5
47
330
1F
100
AcDbEntity
  8
Layer 01
100
AcDbLine
 10
-16.5
 20
19.99999999999999
 30
0.0
 11
-16.5
 21
19.99999999999999
 31
0.25
  0
LINE
  5
48
330
1F
100
AcDbEntity
  8
Layer 01
100
AcDbLine
 10
16.5
 20
19.99999999999999
 30
0.0
 11
16.5
 21
23.99999999999999
 31
0.0
  0
LINE
  5
49
330
1F
100
AcDbEntity
  8
Layer 01
100
AcDbLine
 10
16.5
 20
23.99999999999999
 30
0.0
 11
19.5
 21
23.99999999999999
 31
0.0
  0
LINE
  5
4A
330
1F
100
AcDbEntity
  8
Layer 01
100
AcDbLine
 10
19.5
 20
23.99999999999999
 30
0.0
 11
19.5
 21
19.99999999999999
 31
0.0
  0
LINE
  5
4B
330
1F
100
AcDbEntity
  8
Layer 01
100
AcDbLine
 10
19.5
 20
19.99999999999999
 30
0.0
 11
16.5
 21
19.99999999999999
 31
0.0
  0
LINE
  5
4C
330
1F
100
AcDbEntity
  8
Layer 01
100
AcDbLine
 10
16.5
 20
19.99999999999999
 30
0.25
 11
16.5
 21
23.99999999999999
 31
0.25
  0
LINE
  5
4D
330
1F
100
AcDbEntity
  8
Layer 01
100
AcDbLine
 10
16.5
 20
23.99999999999999
 30
0.25
 11
19.5
 21
23.99999999999999
 31
0.25
  0
LINE
  5
4E
330
1F
100
AcDbEntity
  8
Layer 01
100
AcDbLine
 10
19.5
 20
23.99999999999999
 30
0.25
 11
19.5
 21
19.99999999999999
 31
0.25
  0
LINE
  5
4F
330
1F
100
AcDbEntity
  8
Layer 01
100
AcDbLine
 10
19.5
 20
19.99999999999999
 30
0.25
 11
16.5
 21
19.99999999999999
 31
0.25
  0
LINE
  5
50
330
1F
100
AcDbEntity
  8
Layer 01
100
AcDbLine
 10
16.5
 20
19.99999999999999
 30
0.0
 11
16.5
 21
19.99999999999999
 31
0.25
  0
LINE
  5
51
330
1F
100
AcDbEntity
  8
Layer 01
100
AcDbLine
 10
16.5
 20
23.99999999999999
 30
0.0
 11
16.5
 21
23.99999999999999
 31
0.25
  0
LINE
  5
52
330
1F
100
AcDbEntity
  8
Layer 01
100
AcDbLine
 10
19.5
 20
23.99999999999999
 30
0.0
 11
19.5
 21
23.99999999999999
 31
0.25
  0
LINE
  5
53
330
1F
100
AcDbEntity
  8
Layer 01
100
AcDbLine
 10
19.5
 20
19.99999999999999
 30
0.0
 11
19.5
 21
19.99999999999999
 31
0.25
  0
SPLINE
  5
54
330
1F
100
AcDbEntity
  8
Layer 01
100
AcDbSpline
 70
     4
 71
     3
 72
    88
 73
    84
 74
     0
 42
0.0000000001
 43
0.0000000001
 40
0.0
 40
0.0
 40
0.0
 40
0.0
 40
13.5510146134954
 40
19.61145157668346
 40
22.64167005827749
 40
24.15677929907451
 40
25.1231578611965
 40
27.89532607459973
 40
29.29953053935857
 40
30.70373500411742
 40
32.04572395432365
 40
33.38771290452988
 40
34.80053364296445
 40
36.21335438139903
 40
36.97899469892825
 40
37.74463501645746
 40
38.51027533398667
 40
39.27591565151589
 40
44.73316672513977
 40
47.46179226195171
 40
50.19041779876365
 40
55.33424895827748
 40
60.47808011779132
 40
65.62191127730514
 40
70.76574243681898
 40
71.58064905703156
 40
72.39555567724415
 40
72.82928611903216
 40
73.26301656082016
 40
74.18616720736368
 40
75.1093178539072
 40
77.03355325807524
 40
78.95778866224329
 40
79.86480753396253
 40
80.77182640568178
 40
81.2859821995032
 40
81.80013799332461
 40
84.14388799332461
 40
88.83138799332461
 40
93.51888799332461
 40
98.20638799332461
 40
102.8938879933246
 40
104.0657629933246
 40
105.2376379933246
 40
105.4947158902353
 40
105.751793787146
 40
106.0088716840567
 40
106.2659495809674
 40
107.1729684526867
 40
108.0799873244059
 40
110.004222728574
 40
111.928458132742
 40
112.8516087792855
 40
113.774759425829
 40
114.208489867617
 40
114.642220309405
 40
115.4571269296176
 40
116.2720335498302
 40
126.5596958688577
 40
136.8473581878851
 40
142.3046092615089
 40
147.7618603351326
 40
148.5275006526618
 40
149.293140970191
 40
150.0587812877202
 40
150.8244216052494
 40
152.237242343684
 40
153.6500630821186
 40
154.9920520323248
 40
156.334040982531
 40
157.7382454472899
 40
159.1424499120487
 40
160.5285340187504
 40
161.914618125452
 40
162.397807406513
 40
162.880996687574
 40
163.6385513079724
 40
164.3961059283708
 40
167.4263244099646
 40
170.4565428915583
 40
173.4867613731521
 40
180.2622686798996
 40
186.7878095697562
 40
186.7878095697562
 40
186.7878095697562
 40
186.7878095697562
 10
-16.8125
 20
21.99999999999998
 30
0.25
 41
1.0
 10
-16.8125
 20
21.99994901213364
 30
4.76699237089524
 41
0.9999999999999998
 10
-16.8125
 20
22.00018705343869
 30
11.30421380955254
 41
0.9999999999999998
 10
-16.8125
 20
21.99962261375706
 30
18.85152366496855
 41
1.0
 10
-16.8125
 20
22.00107150190383
 30
22.38654890588508
 41
0.9999999999999997
 10
-16.8125
 20
21.99676918333076
 30
24.22343688181561
 41
1.0
 10
-16.81250000000003
 20
22.01966633460276
 30
25.9780961854444
 41
1.0
 10
-16.81249999999989
 20
21.4960063400148
 30
27.65979035385082
 41
1.0
 10
-16.81250000000031
 20
20.36282451210244
 30
29.15059528170962
 41
1.0
 10
-16.8124999999988
 20
19.28634201922765
 30
30.0350189377852
 41
0.9999999999999998
 10
-16.81250000000444
 20
18.05694015651261
 30
30.64202220165538
 41
1.0
 10
-16.81249999998296
 20
16.72064552210411
 30
30.96212651953496
 41
0.9999999999999998
 10
-16.81250000006419
 20
15.32160801367239
 30
30.96981118226572
 41
1.0
 10
-16.81249999980784
 20
14.14795625872972
 30
30.69501021807763
 41
0.9999999999999998
 10
-16.81250000061388
 20
13.2467953794711
 30
30.30151897543028
 41
0.9999999999999999
 10
-16.81249999755944
 20
12.58811681351859
 30
29.90777911337533
 41
0.9999999999999998
 10
-16.81250000914835
 20
11.98594183232472
 30
29.43259233960947
 41
1.0
 10
-16.8124998774017
 20
10.34464233672574
 30
27.77753875074405
 41
1.0
 10
-16.81250043073695
 20
8.232340077390491
 30
25.67174263619886
 41
0.9999999999999998
 10
-16.81249886320787
 20
5.660607313079648
 30
23.0977703528549
 41
1.0
 10
-16.81250617387667
 20
3.161700074526902
 30
20.59930617793608
 41
1.0
 10
-16.81247468138865
 20
0.0938497476011939
 30
17.53131425364131
 41
1.0
 10
-16.81258925705675
 20
-3.543547173214116
 30
13.89396242546102
 41
0.9999999999999999
 10
-16.81216829038434
 20
-7.180888016962466
 30
10.25660908229698
 41
1.0
 10
-16.81329735555077
 20
-9.797044229996146
 30
7.640456398306588
 41
1.0
 10
-16.81069025718044
 20
-11.39603049558754
 30
6.04146944997533
 41
1.0
 10
-16.81906144927373
 20
-11.8739345108722
 30
5.563565502395166
 41
1.0
 10
-16.78065240617285
 20
-12.17041588463346
 30
5.267084112960141
 41
0.9999999999999999
 10
-16.70490475596066
 20
-12.5091105782793
 30
4.928389422501358
 41
1.0
 10
-16.54078100980229
 20
-12.92420131786997
 30
4.513298681881235
 41
0.9999999999999999
 10
-16.12360205926004
 20
-13.57585046142232
 30
3.861649538658936
 41
1.0
 10
-15.32870039164787
 20
-14.29594694611942
 30
3.141553053850654
 41
1.0
 10
-14.25546407874651
 20
-14.80071136095387
 30
2.636788639053375
 41
1.0
 10
-13.31658274300069
 20
-15.04425654616582
 30
2.3932434538328
 41
1.0
 10
-12.69779936776149
 20
-15.13209074308736
 30
2.30540925691299
 41
0.9999999999999998
 10
-12.20395029593976
 20
-15.16185914025206
 30
2.275640859747894
 41
0.9999999999999999
 10
-11.11994262310241
 20
-15.15973879788067
 30
2.277761202119374
 41
0.9999999999999998
 10
-8.588617974202862
 20
-15.16055749565715
 30
2.276942504342855
 41
1.0
 10
-4.689417018842456
 20
-15.16022725672516
 30
2.277272743274841
 41
1.0
 10
0.0005082471550102
 20
-15.16033161370187
 30
2.277168386298134
 41
1.0
 10
4.687384030222392
 20
-15.16031047251339
 30
2.277189527486607
 41
0.9999999999999999
 10
8.202868957857847
 20
-15.16029562834625
 30
2.277204371653734
 41
0.9999999999999998
 10
10.54849833035538
 20
-15.16035268993174
 30
2.277147310068269
 41
1.0
 10
11.40918995731503
 20
-15.16018740230088
 30
2.277312597699073
 41
0.9999999999999998
 10
11.98659932122347
 20
-15.16061770104593
 30
2.276882298954158
 41
1.0
 10
12.1853021341157
 20
-15.15897250848894
 30
2.278527491510645
 41
1.0
 10
12.39286180637077
 20
-15.1499730649975
 30
2.287526935004023
 41
1.0
 10
12.77064417540015
 20
-15.1223833206104
 30
2.315116679377763
 41
0.9999999999999999
 10
13.31486474452961
 20
-15.04429497512493
 30
2.39320502492708
 41
1.0
 10
14.25623495234939
 20
-14.80060129105133
 30
2.636898708687117
 41
1.0
 10
15.32812270546536
 20
-14.29617741586191
 30
3.141322585217272
 41
0.9999999999999999
 10
16.12369736890752
 20
-13.5758295242988
 30
3.861670472773442
 41
1.0
 10
16.54069478374528
 20
-12.92433371865368
 30
4.513166290312882
 41
0.9999999999999998
 10
16.70489624611835
 20
-12.50914547702169
 30
4.928354494845423
 41
1.0
 10
16.78062719334389
 20
-12.17057335977952
 30
5.26692672694239
 41
1.0
 10
16.81904354744873
 20
-11.87397650790241
 30
5.563523013971749
 41
1.0
 10
16.81077993186297
 20
-11.39612291146284
 30
6.041379050330693
 41
1.0
 10
16.81336524606998
 20
-8.584482134925508
 30
8.852976538115318
 41
1.0
 10
16.81209458444442
 20
-3.54414996441821
 30
13.89354817949856
 41
1.0
 10
16.81259993002869
 20
2.592769456879289
 30
20.02975625155413
 41
1.0
 10
16.81247811290468
 20
7.588832083845306
 30
25.02794088560951
 41
1.0
 10
16.81250469440153
 20
10.34471411500144
 30
27.77810528771433
 41
0.9999999999999998
 10
16.81249964970142
 20
11.98571447940064
 30
29.4323599116699
 41
1.0
 10
16.81250009345117
 20
12.58830600896869
 30
29.90791780437922
 41
1.0
 10
16.81249997649391
 20
13.24654256649738
 30
30.30138708238313
 41
0.9999999999999999
 10
16.81250000735783
 20
14.14820671236247
 30
30.69509574327973
 41
1.0
 10
16.81249999754201
 20
15.32128912393416
 30
30.9697497066767
 41
0.9999999999999999
 10
16.81250000065242
 20
16.72051828627099
 30
30.96214112855603
 41
0.9999999999999998
 10
16.81249999982977
 20
18.05672286958327
 30
30.64214878279628
 41
0.9999999999999999
 10
16.81250000004601
 20
19.28664261735813
 30
30.03474490864431
 41
1.0
 10
16.8124999999874
 20
20.36259588453828
 30
29.15107818351323
 41
0.9999999999999998
 10
16.81250000000339
 20
21.21403874802372
 30
28.02959199421197
 41
1.0
 10
16.81249999999902
 20
21.78058222973054
 30
26.74801481320391
 41
0.9999999999999997
 10
16.81250000000023
 20
21.98417227952029
 30
25.67449864490392
 41
1.0
 10
16.81249999999996
 20
22.00227090928893
 30
24.89007958551643
 41
1.0
 10
16.81250000000001
 20
21.99932955992092
 30
24.31558837328977
 41
1.0
 10
16.8125
 20
22.00018301695865
 30
23.64933163569786
 41
1.0
 10
16.8125
 20
21.99992808593776
 30
22.13432767183999
 41
1.0
 10
16.8125
 20
22.00002803700972
 30
19.86145836297609
 41
1.0
 10
16.8125
 20
21.99999308304723
 30
16.83109184395384
 41
1.0
 10
16.8125
 20
22.00000232843183
 30
12.55249562922176
 41
0.9999999999999999
 10
16.8125
 20
21.99999908983659
 30
7.108900276102674
 41
0.9999999999999998
 10
16.8125
 20
22.00000015076439
 30
2.675457215570604
 41
1.0
 10
16.8125
 20
22.00000001819597
 30
0.4999999999999985
 41
1.0
  0
SPLINE
  5
55
330
1F
100
AcDbEntity
  8
Layer 01
100
AcDbSpline
210
0.0
220
0.0
230
1.0
 70
    15
 71
     2
 72
    12
 73
     9
 74
     0
 42
0.0000000001
 43
0.0000000001
 40
0.0
 40
0.0
 40
0.0
 40
1.865019075234794
 40
1.865019075234794
 40
3.730038150469588
 40
3.730038150469588
 40
5.595057225704382
 40
5.595057225704382
 40
7.460076300939177
 40
7.460076300939177
 40
7.460076300939177
 10
-16.8125
 20
21.99999999999998
 30
0.25
 41
1.0
 10
-16.8125
 20
23.18749999999998
 30
0.2499999999999999
 41
0.7071067811865477
 10
-18.0
 20
23.18749999999999
 30
0.25
 41
1.0
 10
-19.1875
 20
23.18749999999998
 30
0.2499999999999999
 41
0.7071067811865477
 10
-19.1875
 20
21.99999999999998
 30
0.25
 41
1.0
 10
-19.1875
 20
20.81249999999998
 30
0.2499999999999999
 41
0.7071067811865477
 10
-18.0
 20
20.81249999999998
 30
0.25
 41
1.0
 10
-16.8125
 20
20.81249999999998
 30
0.2499999999999999
 41
0.7071067811865477
 10
-16.8125
 20
21.99999999999998
 30
0.25
 41
1.0
  0
SPLINE
  5
56
330
1F
100
AcDbEntity
  8
Layer 01
100
AcDbSpline
210
0.0
220
0.0
230
1.0
 70
    15
 71
     3
 72
    15
 73
    11
 74
     0
 42
0.0000000001
 43
0.0000000001
 40
0.0
 40
0.0
 40
0.0
 40
0.0
 40
1.091769945076852
 40
2.257946509181819
 40
3.34971644852865
 40
4.515893016450115
 40
5.607662986009495
 40
6.77383956392447
 40
7.865609540909866
 40
9.031786109500095
 40
9.031786109500095
 40
9.031786109500095
 40
9.031786109500095
 10
16.56249999999341
 20
22.00000000000423
 30
0.2500000000000001
 41
1.0
 10
16.56083075013297
 20
21.63696476862085
 30
0.2499999999999998
 41
1.0
 10
16.86225976801576
 20
20.88378998880986
 30
0.2499999999999999
 41
1.0
 10
17.97397496899473
 20
20.40611332604421
 30
0.2499999999999994
 41
1.0
 10
19.11637230479145
 20
20.86199725513325
 30
0.2499999999999999
 41
1.0
 10
19.59369490909066
 20
21.9741695178209
 30
0.249999999999999
 41
1.0
 10
19.13828328221334
 20
23.11610690520464
 30
0.25
 41
1.0
 10
18.025339489029
 20
23.59414996622111
 30
0.2499999999999999
 41
1.0
 10
16.88486699152707
 20
23.13742826583852
 30
0.25
 41
1.0
 10
16.56020312402327
 20
22.38910408813626
 30
0.2500000000000001
 41
1.0
 10
16.56249999999341
 20
22.00000000000423
 30
0.2500000000000001
 41
1.0
  0
SPLINE
  5
57
330
1F
100
AcDbEntity
  8
Layer 01
100
AcDbSpline
 70
     7
 71
     3
 72
    15
 73
    11
 74
     0
 42
0.0000000001
 43
0.0000000001
 40
-0.0000000181922845
 40
-0.0000000181922845
 40
-0.0000000181922845
 40
-0.0000000181922845
 40
1.091769945076852
 40
2.257946509181819
 40
3.34971644852865
 40
4.515893016450115
 40
5.607662986009495
 40
6.77383956392447
 40
7.865609540909866
 40
9.031786091344895
 40
9.031786091344895
 40
9.031786091344895
 40
9.031786091344895
 10
16.8125
 20
22.00000001819597
 30
0.4999999999999985
 41
1.0
 10
16.81112105075936
 20
21.70010134313256
 30
0.4999999960999787
 41
1.0
 10
17.06012762952474
 20
21.07791347379935
 30
0.4999999896472518
 41
1.0
 10
17.97850106158861
 20
20.68331101105739
 30
0.4999999869000913
 41
1.0
 10
18.92222059899635
 20
21.05991077843316
 30
0.4999999895036889
 41
1.0
 10
19.31653057738931
 20
21.97866177829793
 30
0.4999999989343033
 41
1.0
 10
18.94032097158868
 20
22.92200136074562
 30
0.5000000132921882
 41
1.0
 10
18.02093262177767
 20
23.31690649735217
 30
0.5000000206858688
 41
1.0
 10
17.07880317187142
 20
22.93961466022725
 30
0.5000000136332255
 41
1.0
 10
16.81060258540036
 20
22.32143382565529
 30
0.5000000040690026
 41
1.0
 10
16.8125
 20
22.00000001819597
 30
0.4999999999999985
 41
1.0
  0
SPLINE
  5
58
330
1F
100
AcDbEntity
  8
Layer 01
100
AcDbSpline
210
-4.269463715883554E-8
220
0.9999999999999987
230
-3.007228599376048E-8
 70
    12
 71
     2
 72
     6
 73
     3
 74
     0
 42
0.0000000001
 43
0.0000000001
 40
0.0
 40
0.0
 40
0.0
 40
1.0
 40
1.0
 40
1.0
 10
16.56249999999341
 20
22.00000000000423
 30
0.2500000000000001
 41
1.0
 10
16.8124999999967
 20
22.00000001067789
 30
0.2499999999967028
 41
0.7071067811865482
 10
16.8125
 20
22.00000001819597
 30
0.4999999999999985
 41
1.0
  0
SPLINE
  5
59
330
1F
100
AcDbEntity
  8
Layer 01
100
AcDbSpline
210
0.0
220
0.0
230
1.0
 70
    24
 71
     2
 72
     6
 73
     3
 74
     0
 42
0.0000000001
 43
0.0000000001
 40
0.0
 40
0.0
 40
0.0
 40
4.0
 40
4.0
 40
4.0
 10
-19.5
 20
19.99999999999999
 30
0.125
 10
-19.5
 20
21.99999999999999
 30
0.125
 10
-19.5
 20
23.99999999999999
 30
0.125
  0
SPLINE
  5
5A
330
1F
100
AcDbEntity
  8
Layer 01
100
AcDbSpline
210
0.0
220
0.0
230
1.0
 70
    24
 71
     2
 72
     6
 73
     3
 74
     0
 42
0.0000000001
 43
0.0000000001
 40
0.0
 40
0.0
 40
0.0
 40
0.25
 40
0.25
 40
0.25
 10
-19.5
 20
21.99999999999999
 30
0.0
 10
-19.5
 20
21.99999999999999
 30
0.125
 10
-19.5
 20
21.99999999999999
 30
0.25
  0
SPLINE
  5
5B
330
1F
100
AcDbEntity
  8
Layer 01
100
AcDbSpline
210
0.0
220
0.0
230
1.0
 70
    24
 71
     2
 72
     6
 73
     3
 74
     0
 42
0.0000000001
 43
0.0000000001
 40
0.0
 40
0.0
 40
0.0
 40
3.0
 40
3.0
 40
3.0
 10
-19.5
 20
23.99999999999999
 30
0.125
 10
-18.0
 20
23.99999999999999
 30
0.125
 10
-16.5
 20
23.99999999999999
 30
0.125
  0
SPLINE
  5
5C
330
1F
100
AcDbEntity
  8
Layer 01
100
AcDbSpline
210
0.0
220
0.0
230
1.0
 70
    24
 71
     2
 72
     6
 73
     3
 74
     0
 42
0.0000000001
 43
0.0000000001
 40
0.0
 40
0.0
 40
0.0
 40
0.25
 40
0.25
 40
0.25
 10
-18.0
 20
23.99999999999999
 30
0.0
 10
-18.0
 20
23.99999999999999
 30
0.125
 10
-18.0
 20
23.99999999999999
 30
0.25
  0
SPLINE
  5
5D
330
1F
100
AcDbEntity
  8
Layer 01
100
AcDbSpline
210
0.0
220
0.0
230
1.0
 70
    24
 71
     2
 72
     6
 73
     3
 74
     0
 42
0.0000000001
 43
0.0000000001
 40
0.0
 40
0.0
 40
0.0
 40
4.0
 40
4.0
 40
4.0
 10
-16.5
 20
23.99999999999999
 30
0.125
 10
-16.5
 20
21.99999999999999
 30
0.125
 10
-16.5
 20
19.99999999999999
 30
0.125
  0
SPLINE
  5
5E
330
1F
100
AcDbEntity
  8
Layer 01
100
AcDbSpline
210
0.0
220
0.0
230
1.0
 70
    24
 71
     2
 72
     6
 73
     3
 74
     0
 42
0.0000000001
 43
0.0000000001
 40
0.0
 40
0.0
 40
0.0
 40
0.25
 40
0.25
 40
0.25
 10
-16.5
 20
21.99999999999999
 30
0.0
 10
-16.5
 20
21.99999999999999
 30
0.125
 10
-16.5
 20
21.99999999999999
 30
0.25
  0
SPLINE
  5
5F
330
1F
100
AcDbEntity
  8
Layer 01
100
AcDbSpline
210
0.0
220
0.0
230
1.0
 70
    24
 71
     2
 72
     6
 73
     3
 74
     0
 42
0.0000000001
 43
0.0000000001
 40
0.0
 40
0.0
 40
0.0
 40
3.0
 40
3.0
 40
3.0
 10
-16.5
 20
19.99999999999999
 30
0.125
 10
-18.0
 20
19.99999999999999
 30
0.125
 10
-19.5
 20
19.99999999999999
 30
0.125
  0
SPLINE
  5
60
330
1F
100
AcDbEntity
  8
Layer 01
100
AcDbSpline
210
0.0
220
0.0
230
1.0
 70
    24
 71
     2
 72
     6
 73
     3
 74
     0
 42
0.0000000001
 43
0.0000000001
 40
0.0
 40
0.0
 40
0.0
 40
0.25
 40
0.25
 40
0.25
 10
-18.0
 20
19.99999999999999
 30
0.0
 10
-18.0
 20
19.99999999999999
 30
0.125
 10
-18.0
 20
19.99999999999999
 30
0.25
  0
SPLINE
  5
61
330
1F
100
AcDbEntity
  8
Layer 01
100
AcDbSpline
210
0.0
220
0.0
230
1.0
 70
    24
 71
     2
 72
     6
 73
     3
 74
     0
 42
0.0000000001
 43
0.0000000001
 40
0.0
 40
0.0
 40
0.0
 40
3.0
 40
3.0
 40
3.0
 10
-19.5
 20
21.99999999999999
 30
0.0
 10
-18.0
 20
21.99999999999999
 30
0.0
 10
-16.5
 20
21.99999999999999
 30
0.0
  0
SPLINE
  5
62
330
1F
100
AcDbEntity
  8
Layer 01
100
AcDbSpline
210
0.0
220
0.0
230
1.0
 70
    24
 71
     2
 72
     6
 73
     3
 74
     0
 42
0.0000000001
 43
0.0000000001
 40
0.0
 40
0.0
 40
0.0
 40
4.0
 40
4.0
 40
4.0
 10
-18.0
 20
19.99999999999999
 30
0.0
 10
-18.0
 20
21.99999999999999
 30
0.0
 10
-18.0
 20
23.99999999999999
 30
0.0
  0
SPLINE
  5
63
330
1F
100
AcDbEntity
  8
Layer 01
100
AcDbSpline
210
0.0
220
0.0
230
1.0
 70
    24
 71
     2
 72
     6
 73
     3
 74
     0
 42
0.0000000001
 43
0.0000000001
 40
0.0
 40
0.0
 40
0.0
 40
0.8125001384674572
 40
0.8125001384674572
 40
0.8125001384674572
 10
-18.0
 20
19.99999999999999
 30
0.25
 10
-18.0
 20
20.40625006923371
 30
0.25
 10
-18.0
 20
20.81250013846744
 30
0.25
  0
SPLINE
  5
64
330
1F
100
AcDbEntity
  8
Layer 01
100
AcDbSpline
210
0.0
220
0.0
230
1.0
 70
    24
 71
     2
 72
     6
 73
     3
 74
     0
 42
0.0000000001
 43
0.0000000001
 40
3.187499954999109
 40
3.187499954999109
 40
3.187499954999109
 40
4.0
 40
4.0
 40
4.0
 10
-18.0
 20
23.18749995499909
 30
0.25
 10
-18.0
 20
23.59374997749954
 30
0.25
 10
-18.0
 20
23.99999999999999
 30
0.25
  0
SPLINE
  5
65
330
1F
100
AcDbEntity
  8
Layer 01
100
AcDbSpline
210
0.0
220
0.0
230
1.0
 70
    24
 71
     2
 72
     6
 73
     3
 74
     0
 42
0.0000000001
 43
0.0000000001
 40
0.0
 40
0.0
 40
0.0
 40
0.3125001135247727
 40
0.3125001135247727
 40
0.3125001135247727
 10
-19.5
 20
21.99999999999999
 30
0.25
 10
-19.34374994323761
 20
21.99999999999999
 30
0.25
 10
-19.18749988647523
 20
21.99999999999998
 30
0.25
  0
SPLINE
  5
66
330
1F
100
AcDbEntity
  8
Layer 01
100
AcDbSpline
210
0.0
220
0.0
230
1.0
 70
    24
 71
     2
 72
     6
 73
     3
 74
     0
 42
0.0000000001
 43
0.0000000001
 40
2.6875
 40
2.6875
 40
2.6875
 40
3.0
 40
3.0
 40
3.0
 10
-16.8125
 20
21.99999999999999
 30
0.25
 10
-16.65625
 20
21.99999999999999
 30
0.25
 10
-16.5
 20
21.99999999999999
 30
0.25
  0
SPLINE
  5
67
330
1F
100
AcDbEntity
  8
Layer 01
100
AcDbSpline
210
0.0
220
0.0
230
1.0
 70
    24
 71
     2
 72
     6
 73
     3
 74
     0
 42
0.0000000001
 43
0.0000000001
 40
0.0
 40
0.0
 40
0.0
 40
4.0
 40
4.0
 40
4.0
 10
16.5
 20
19.99999999999999
 30
0.125
 10
16.5
 20
21.99999999999999
 30
0.125
 10
16.5
 20
23.99999999999999
 30
0.125
  0
SPLINE
  5
68
330
1F
100
AcDbEntity
  8
Layer 01
100
AcDbSpline
210
0.0
220
0.0
230
1.0
 70
    24
 71
     2
 72
     6
 73
     3
 74
     0
 42
0.0000000001
 43
0.0000000001
 40
0.0
 40
0.0
 40
0.0
 40
0.25
 40
0.25
 40
0.25
 10
16.5
 20
21.99999999999999
 30
0.0
 10
16.5
 20
21.99999999999999
 30
0.125
 10
16.5
 20
21.99999999999999
 30
0.25
  0
SPLINE
  5
69
330
1F
100
AcDbEntity
  8
Layer 01
100
AcDbSpline
210
0.0
220
0.0
230
1.0
 70
    24
 71
     2
 72
     6
 73
     3
 74
     0
 42
0.0000000001
 43
0.0000000001
 40
0.0
 40
0.0
 40
0.0
 40
3.0
 40
3.0
 40
3.0
 10
16.5
 20
23.99999999999999
 30
0.125
 10
18.0
 20
23.99999999999999
 30
0.125
 10
19.5
 20
23.99999999999999
 30
0.125
  0
SPLINE
  5
6A
330
1F
100
AcDbEntity
  8
Layer 01
100
AcDbSpline
210
0.0
220
0.0
230
1.0
 70
    24
 71
     2
 72
     6
 73
     3
 74
     0
 42
0.0000000001
 43
0.0000000001
 40
0.0
 40
0.0
 40
0.0
 40
0.25
 40
0.25
 40
0.25
 10
18.0
 20
23.99999999999999
 30
0.0
 10
18.0
 20
23.99999999999999
 30
0.125
 10
18.0
 20
23.99999999999999
 30
0.25
  0
SPLINE
  5
6B
330
1F
100
AcDbEntity
  8
Layer 01
100
AcDbSpline
210
0.0
220
0.0
230
1.0
 70
    24
 71
     2
 72
     6
 73
     3
 74
     0
 42
0.0000000001
 43
0.0000000001
 40
0.0
 40
0.0
 40
0.0
 40
4.0
 40
4.0
 40
4.0
 10
19.5
 20
23.99999999999999
 30
0.125
 10
19.5
 20
21.99999999999999
 30
0.125
 10
19.5
 20
19.99999999999999
 30
0.125
  0
SPLINE
  5
6C
330
1F
100
AcDbEntity
  8
Layer 01
100
AcDbSpline
210
0.0
220
0.0
230
1.0
 70
    24
 71
     2
 72
     6
 73
     3
 74
     0
 42
0.0000000001
 43
0.0000000001
 40
0.0
 40
0.0
 40
0.0
 40
0.25
 40
0.25
 40
0.25
 10
19.5
 20
21.99999999999999
 30
0.0
 10
19.5
 20
21.99999999999999
 30
0.125
 10
19.5
 20
21.99999999999999
 30
0.25
  0
SPLINE
  5
6D
330
1F
100
AcDbEntity
  8
Layer 01
100
AcDbSpline
210
0.0
220
0.0
230
1.0
 70
    24
 71
     2
 72
     6
 73
     3
 74
     0
 42
0.0000000001
 43
0.0000000001
 40
0.0
 40
0.0
 40
0.0
 40
3.0
 40
3.0
 40
3.0
 10
19.5
 20
19.99999999999999
 30
0.125
 10
18.0
 20
19.99999999999999
 30
0.125
 10
16.5
 20
19.99999999999999
 30
0.125
  0
SPLINE
  5
6E
330
1F
100
AcDbEntity
  8
Layer 01
100
AcDbSpline
210
0.0
220
0.0
230
1.0
 70
    24
 71
     2
 72
     6
 73
     3
 74
     0
 42
0.0000000001
 43
0.0000000001
 40
0.0
 40
0.0
 40
0.0
 40
0.25
 40
0.25
 40
0.25
 10
18.0
 20
19.99999999999999
 30
0.0
 10
18.0
 20
19.99999999999999
 30
0.125
 10
18.0
 20
19.99999999999999
 30
0.25
  0
SPLINE
  5
6F
330
1F
100
AcDbEntity
  8
Layer 01
100
AcDbSpline
210
0.0
220
0.0
230
1.0
 70
    24
 71
     2
 72
     6
 73
     3
 74
     0
 42
0.0000000001
 43
0.0000000001
 40
0.0
 40
0.0
 40
0.0
 40
3.0
 40
3.0
 40
3.0
 10
16.5
 20
21.99999999999999
 30
0.0
 10
18.0
 20
21.99999999999999
 30
0.0
 10
19.5
 20
21.99999999999999
 30
0.0
  0
SPLINE
  5
70
330
1F
100
AcDbEntity
  8
Layer 01
100
AcDbSpline
210
0.0
220
0.0
230
1.0
 70
    24
 71
     2
 72
     6
 73
     3
 74
     0
 42
0.0000000001
 43
0.0000000001
 40
0.0
 40
0.0
 40
0.0
 40
4.0
 40
4.0
 40
4.0
 10
18.0
 20
19.99999999999999
 30
0.0
 10
18.0
 20
21.99999999999999
 30
0.0
 10
18.0
 20
23.99999999999999
 30
0.0
  0
SPLINE
  5
71
330
1F
100
AcDbEntity
  8
Layer 01
100
AcDbSpline
210
0.0
220
0.0
230
1.0
 70
    24
 71
     2
 72
     6
 73
     3
 74
     0
 42
0.0000000001
 43
0.0000000001
 40
0.0
 40
0.0
 40
0.0
 40
0.5615822677057425
 40
0.5615822677057425
 40
0.5615822677057425
 10
18.0
 20
19.99999999999999
 30
0.25
 10
18.0
 20
20.28079113385286
 30
0.25
 10
18.0
 20
20.56158226770573
 30
0.25
  0
SPLINE
  5
72
330
1F
100
AcDbEntity
  8
Layer 01
100
AcDbSpline
210
0.0
220
0.0
230
1.0
 70
    24
 71
     2
 72
     6
 73
     3
 74
     0
 42
0.0000000001
 43
0.0000000001
 40
3.43847582621702
 40
3.43847582621702
 40
3.43847582621702
 40
4.0
 40
4.0
 40
4.0
 10
18.0
 20
23.438475826217
 30
0.25
 10
18.0
 20
23.71923791310849
 30
0.25
 10
18.0
 20
23.99999999999999
 30
0.25
  0
SPLINE
  5
73
330
1F
100
AcDbEntity
  8
Layer 01
100
AcDbSpline
210
0.0
220
0.0
230
1.0
 70
    24
 71
     2
 72
     6
 73
     3
 74
     0
 42
0.0000000001
 43
0.0000000001
 40
0.0
 40
0.0
 40
0.0
 40
0.0624999999933866
 40
0.0624999999933866
 40
0.0624999999933866
 10
16.5
 20
21.99999999999999
 30
0.25
 10
16.53124999999669
 20
21.99999999999999
 30
0.25
 10
16.56249999999338
 20
21.99999999999999
 30
0.25
  0
SPLINE
  5
74
330
1F
100
AcDbEntity
  8
Layer 01
100
AcDbSpline
210
0.0
220
0.0
230
1.0
 70
    24
 71
     2
 72
     6
 73
     3
 74
     0
 42
0.0000000001
 43
0.0000000001
 40
2.938364840858872
 40
2.938364840858872
 40
2.938364840858872
 40
3.0
 40
3.0
 40
3.0
 10
19.43836484085887
 20
21.99999999999999
 30
0.25
 10
19.46918242042943
 20
21.99999999999999
 30
0.25
 10
19.5
 20
21.99999999999999
 30
0.25
  0
SPLINE
  5
75
330
1F
100
AcDbEntity
  8
Layer 01
100
AcDbSpline
 70
     4
 71
     3
 72
    88
 73
    84
 74
     0
 42
0.0000000001
 43
0.0000000001
 40
0.0
 40
0.0
 40
0.0
 40
0.0
 40
13.5510146134954
 40
19.61145157668346
 40
22.64167005827749
 40
24.15677929907451
 40
25.1231578611965
 40
27.89532607459973
 40
29.29953053935857
 40
30.70373500411742
 40
32.04572395432365
 40
33.38771290452988
 40
34.80053364296445
 40
36.21335438139903
 40
36.97899469892825
 40
37.74463501645746
 40
38.51027533398667
 40
39.27591565151589
 40
44.73316672513977
 40
47.46179226195171
 40
50.19041779876365
 40
55.33424895827748
 40
60.47808011779132
 40
65.62191127730514
 40
70.76574243681898
 40
71.58064905703156
 40
72.39555567724415
 40
72.82928611903216
 40
73.26301656082016
 40
74.18616720736368
 40
75.1093178539072
 40
77.03355325807524
 40
78.95778866224329
 40
79.86480753396253
 40
80.77182640568178
 40
81.2859821995032
 40
81.80013799332461
 40
84.14388799332461
 40
88.83138799332461
 40
93.51888799332461
 40
98.20638799332461
 40
102.8938879933246
 40
104.0657629933246
 40
105.2376379933246
 40
105.4947158902353
 40
105.751793787146
 40
106.0088716840567
 40
106.2659495809674
 40
107.1729684526867
 40
108.0799873244059
 40
110.004222728574
 40
111.928458132742
 40
112.8516087792855
 40
113.774759425829
 40
114.208489867617
 40
114.642220309405
 40
115.4571269296176
 40
116.2720335498302
 40
126.5596958688577
 40
136.8473581878851
 40
142.3046092615089
 40
147.7618603351326
 40
148.5275006526618
 40
149.293140970191
 40
150.0587812877202
 40
150.8244216052494
 40
152.237242343684
 40
153.6500630821186
 40
154.9920520323248
 40
156.334040982531
 40
157.7382454472899
 40
159.1424499120487
 40
160.5285340187504
 40
161.914618125452
 40
162.397807406513
 40
162.880996687574
 40
163.6385513079724
 40
164.3961059283708
 40
167.4263244099646
 40
170.4565428915583
 40
173.4867613731521
 40
180.2622686798996
 40
186.7878097419536
 40
186.7878097419536
 40
186.7878097419536
 40
186.7878097419536
 10
-18.0
 20
20.81249999999999
 30
0.25
 41
1.0
 10
-18.0
 20
20.81245910330037
 30
4.767416571630276
 41
0.9999999999999998
 10
-18.0
 20
20.81265003311266
 30
11.30265759212522
 41
0.9999999999999998
 10
-18.0
 20
20.81219730343853
 30
18.85466338296629
 41
1.0
 10
-18.0
 20
20.81335943763974
 30
22.37763439488929
 41
0.9999999999999997
 10
-17.99999999999999
 20
20.80990860427523
 30
24.25031611611261
 41
1.0
 10
-18.00000000000004
 20
20.8282741093442
 30
25.81447934497567
 41
1.0
 10
-17.99999999999986
 20
20.40825484780276
 30
27.10994112883171
 41
1.0
 10
-18.00000000000038
 20
19.4993494943568
 30
28.32233097679439
 41
1.0
 10
-17.99999999999851
 20
18.63591755824031
 30
29.02833768309674
 41
0.9999999999999998
 10
-18.00000000000555
 20
17.64984709080984
 30
29.51611001784003
 41
1.0
 10
-17.99999999997876
 20
16.57798067581323
 30
29.77257819303324
 41
0.9999999999999998
 10
-18.00000000008003
 20
15.45601282181028
 30
29.77898361085771
 41
1.0
 10
-17.99999999976042
 20
14.51408831911765
 30
29.55799421315859
 41
0.9999999999999998
 10
-18.00000000076537
 20
13.79303668917694
 30
29.24414021442502
 41
0.9999999999999999
 10
-17.99999999695718
 20
13.25807303278511
 30
28.92167858563587
 41
0.9999999999999998
 10
-18.00000001140593
 20
12.80030392834932
 30
28.56576483380715
 41
1.0
 10
-17.99999984714751
 20
11.19707378737535
 30
26.95150270164406
 41
1.0
 10
-18.00000053703201
 20
9.066762933240048
 30
24.82641034723886
 41
0.9999999999999998
 10
-17.99999858267611
 20
6.501230474913875
 30
22.25908159789137
 41
1.0
 10
-18.00000769743443
 20
4.001089154449915
 30
19.75929565338792
 41
1.0
 10
-17.99996843339103
 20
0.9336641318919234
 30
16.69175705729967
 41
1.0
 10
-18.00011128345741
 20
-2.703979058028762
 30
13.05415003563395
 41
0.9999999999999999
 10
-17.99958643277934
 20
-6.340839046040458
 30
9.417280021992724
 41
1.0
 10
-18.0009941228817
 20
-8.958201928808986
 30
6.79991996982696
 41
1.0
 10
-17.99774365808929
 20
-10.55442256610498
 30
5.203698784913612
 41
1.0
 10
-18.00818065021796
 20
-11.04120092051748
 30
4.716920484806058
 41
1.0
 10
-17.96029345088645
 20
-11.43660543167153
 30
4.321515961080272
 41
0.9999999999999999
 10
-17.86585796580225
 20
-11.85363506653566
 30
3.904486328772443
 41
1.0
 10
-17.66122228174247
 20
-12.37284307545347
 30
3.385278319028921
 41
0.9999999999999999
 10
-17.14117150117422
 20
-13.18474620805478
 30
2.573375186692338
 41
1.0
 10
-16.14983192090143
 20
-14.08271159826725
 30
1.675409796390698
 41
1.0
 10
-14.81264568790287
 20
-14.71196716109961
 30
1.046154233588157
 41
1.0
 10
-13.63950841328728
 20
-15.01562207586107
 30
0.7424993188197745
 41
1.0
 10
-12.87641609966913
 20
-15.125126822789
 30
0.6329945718932287
 41
0.9999999999999998
 10
-12.23330875318203
 20
-15.1622413202129
 30
0.5958800744690073
 41
0.9999999999999999
 10
-11.10909973235201
 20
-15.15959764413632
 30
0.598523750545659
 41
0.9999999999999998
 10
-8.593295064042358
 20
-15.1606184093531
 30
0.5975029853288443
 41
1.0
 10
-4.687843399187067
 20
-15.16020666224997
 30
0.5979147324319835
 41
1.0
 10
0.0001410002719728
 20
-15.16033677627244
 30
0.5977846184095046
 41
1.0
 10
4.687279398099174
 20
-15.16031041670627
 30
0.5978109779756767
 41
0.9999999999999999
 10
8.203432131358968
 20
-15.1602919098879
 30
0.5978294847940381
 41
0.9999999999999998
 10
10.54699644814806
 20
-15.16036305231197
 30
0.5977583423699823
 41
1.0
 10
11.41359069430296
 20
-15.16015697714358
 30
0.5979644175383271
 41
0.9999999999999998
 10
11.97564326528885
 20
-15.16069345945949
 30
0.5974279352225262
 41
1.0
 10
12.23305782317819
 20
-15.15864228750746
 30
0.5994791071741532
 41
1.0
 10
12.48932398419942
 20
-15.14742229055027
 30
0.6106991041329015
 41
1.0
 10
12.96098315298422
 20
-15.11302407730951
 30
0.6450973173629385
 41
0.9999999999999999
 10
13.63924829832718
 20
-15.01567009390136
 30
0.7424513008222949
 41
1.0
 10
14.81298912432774
 20
-14.7118298869261
 30
1.046291507546054
 41
1.0
 10
16.14934007101874
 20
-14.08299899036146
 30
1.675122405186074
 41
0.9999999999999999
 10
17.14123495454871
 20
-13.18471999169449
 30
2.573401400639147
 41
1.0
 10
17.66112559853504
 20
-12.37300848360134
 30
3.38511291827253
 41
0.9999999999999998
 10
17.86584475827241
 20
-11.85367752092285
 30
3.904443851194177
 41
1.0
 10
17.96026245984658
 20
-11.43680501828463
 30
4.32131644595553
 41
1.0
 10
18.00815819365408
 20
-11.04123534043156
 30
4.71688567075355
 41
1.0
 10
17.99785549824922
 20
-10.55461224343769
 30
5.203510724766435
 41
1.0
 10
18.00107874895883
 20
-7.74559798144314
 30
8.012490265567829
 41
1.0
 10
17.99949454655314
 20
-2.704575568870752
 30
13.05370475377227
 41
1.0
 10
18.00012458815836
 20
3.433765435443796
 30
19.19147519661576
 41
1.0
 10
17.99997271217739
 20
8.424115755349783
 30
24.18352754333944
 41
1.0
 10
18.00000585276365
 20
11.19570963688694
 30
26.95053540910513
 41
0.9999999999999998
 10
17.99999956326386
 20
12.80022766201258
 30
28.56568445677863
 41
1.0
 10
18.00000011651062
 20
13.25819648115082
 30
28.9217617059229
 41
1.0
 10
17.99999997069368
 20
13.79284103105605
 30
29.24404086148481
 41
0.9999999999999999
 10
18.0000000091734
 20
14.51428697538168
 30
29.55806404393226
 41
1.0
 10
17.99999999693548
 20
15.4557577903506
 30
29.77892093965076
 41
0.9999999999999999
 10
18.00000000081341
 20
16.57787842356425
 30
29.77263844672175
 41
0.9999999999999998
 10
17.99999999978776
 20
17.64967286352043
 30
29.51603227071327
 41
0.9999999999999999
 10
18.00000000005736
 20
18.63615863613125
 30
29.02880355767183
 41
1.0
 10
17.9999999999843
 20
19.49916616844708
 30
28.32013764489203
 41
0.9999999999999998
 10
18.00000000000422
 20
20.18209338560764
 30
27.42022152400421
 41
1.0
 10
17.99999999999878
 20
20.63650871959922
 30
26.39373870817528
 41
0.9999999999999997
 10
18.00000000000028
 20
20.79980483616684
 30
25.52845495303551
 41
1.0
 10
17.99999999999996
 20
20.8143214603619
 30
24.91103345419775
 41
1.0
 10
18.00000000000001
 20
20.81196225063456
 30
24.30940216697864
 41
1.0
 10
18.00000000000001
 20
20.81264679500293
 30
23.65102034838089
 41
1.0
 10
18.0
 20
20.81244231887003
 30
22.13366411481318
 41
1.0
 10
18.0
 20
20.81252248804129
 30
19.86171706279431
 41
1.0
 10
18.0
 20
20.81249445202177
 30
16.83102802065609
 41
1.0
 10
18.0
 20
20.81250186759827
 30
12.55251711385589
 41
0.9999999999999999
 10
18.0
 20
20.81249926997232
 30
7.108891820551594
 41
0.9999999999999998
 10
18.0
 20
20.81250012092575
 30
2.67545849189449
 41
1.0
 10
18.0
 20
20.81250001459469
 30
0.4999999956764067
 41
1.0
  0
SPLINE
  5
76
330
1F
100
AcDbEntity
  8
Layer 01
100
AcDbSpline
 70
     4
 71
     3
 72
    88
 73
    84
 74
     0
 42
0.0000000001
 43
0.0000000001
 40
0.0
 40
0.0
 40
0.0
 40
0.0
 40
13.5510146134954
 40
19.61145157668346
 40
22.64167005827749
 40
24.15677929907451
 40
25.1231578611965
 40
27.89532607459973
 40
29.29953053935857
 40
30.70373500411742
 40
32.04572395432365
 40
33.38771290452988
 40
34.80053364296445
 40
36.21335438139903
 40
36.97899469892825
 40
37.74463501645746
 40
38.51027533398667
 40
39.27591565151589
 40
44.73316672513977
 40
47.46179226195171
 40
50.19041779876365
 40
55.33424895827748
 40
60.47808011779132
 40
65.62191127730514
 40
70.76574243681898
 40
71.58064905703156
 40
72.39555567724415
 40
72.82928611903216
 40
73.26301656082016
 40
74.18616720736368
 40
75.1093178539072
 40
77.03355325807524
 40
78.95778866224329
 40
79.86480753396253
 40
80.77182640568178
 40
81.2859821995032
 40
81.80013799332461
 40
84.14388799332461
 40
88.83138799332461
 40
93.51888799332461
 40
98.20638799332461
 40
102.8938879933246
 40
104.0657629933246
 40
105.2376379933246
 40
105.4947158902353
 40
105.751793787146
 40
106.0088716840567
 40
106.2659495809674
 40
107.1729684526867
 40
108.0799873244059
 40
110.004222728574
 40
111.928458132742
 40
112.8516087792855
 40
113.774759425829
 40
114.208489867617
 40
114.642220309405
 40
115.4571269296176
 40
116.2720335498302
 40
126.5596958688577
 40
136.8473581878851
 40
142.3046092615089
 40
147.7618603351326
 40
148.5275006526618
 40
149.293140970191
 40
150.0587812877202
 40
150.8244216052494
 40
152.237242343684
 40
153.6500630821186
 40
154.9920520323248
 40
156.334040982531
 40
157.7382454472899
 40
159.1424499120487
 40
160.5285340187504
 40
161.914618125452
 40
162.397807406513
 40
162.880996687574
 40
163.6385513079724
 40
164.3961059283708
 40
167.4263244099646
 40
170.4565428915583
 40
173.4867613731521
 40
180.2622686798996
 40
186.7878095689452
 40
186.7878095689452
 40
186.7878095689452
 40
186.7878095689452
 10
-19.1875
 20
21.99999999999999
 30
0.25
 41
1.0
 10
-19.1875
 20
21.99994901213364
 30
4.766992370895241
 41
0.9999999999999998
 10
-19.1875
 20
22.0001870534387
 30
11.30421380955254
 41
0.9999999999999998
 10
-19.1875
 20
21.99962261375706
 30
18.85152366496856
 41
1.0
 10
-19.18750000000001
 20
22.00107150190383
 30
22.38654890588507
 41
0.9999999999999997
 10
-19.18749999999999
 20
21.99676918333077
 30
24.22343688181562
 41
1.0
 10
-19.18750000000005
 20
22.0196663346027
 30
25.97809618544434
 41
1.0
 10
-19.18749999999984
 20
21.49600634001504
 30
27.65979035385105
 41
1.0
 10
-19.18750000000046
 20
20.3628245121018
 30
29.15059528170897
 41
1.0
 10
-19.18749999999822
 20
19.28634201923019
 30
30.03501893778774
 41
0.9999999999999998
 10
-19.18750000000664
 20
18.0569401565032
 30
30.64202220164596
 41
1.0
 10
-19.18749999997456
 20
16.72064552214023
 30
30.96212651957109
 41
0.9999999999999998
 10
-19.18750000009588
 20
15.3216080135363
 30
30.96981118212961
 41
1.0
 10
-19.187499999713
 20
14.14795625913712
 30
30.69501021848504
 41
0.9999999999999998
 10
-19.18750000091686
 20
13.24679537816957
 30
30.30151897412875
 41
0.9999999999999999
 10
-19.18749999635491
 20
12.58811681869297
 30
29.90777911854972
 41
0.9999999999999998
 10
-19.18750001366351
 20
11.98594181292872
 30
29.43259232021348
 41
1.0
 10
-19.18749981689333
 20
10.3446425966543
 30
27.77753901067262
 41
1.0
 10
-19.18750064332708
 20
8.23233916415735
 30
25.67174172296571
 41
0.9999999999999998
 10
-19.18749830214435
 20
5.660609723265857
 30
23.09777276304111
 41
1.0
 10
-19.18750922099218
 20
3.161686984893379
 30
20.59929308830256
 41
1.0
 10
-19.18746218539342
 20
0.0939034272196508
 30
17.53136793325977
 41
1.0
 10
-19.18763330985806
 20
-3.543736412848316
 30
13.89377318582681
 41
0.9999999999999999
 10
-19.18700457517433
 20
-7.180184738044098
 30
10.25731236121535
 41
1.0
 10
-19.18869089021264
 20
-9.79873475484926
 30
7.638765873453464
 41
1.0
 10
-19.18479705899815
 20
-11.39219354328777
 30
6.045306402275089
 41
1.0
 10
-19.19729985116218
 20
-11.88784586203684
 30
5.549654151230523
 41
1.0
 10
-19.13993449560005
 20
-12.38217359734884
 30
5.055326400244748
 41
0.9999999999999999
 10
-19.02681117564383
 20
-12.87753815578864
 30
4.559961844992016
 41
1.0
 10
-18.78166355368265
 20
-13.50086343973236
 30
3.936636560018837
 41
0.9999999999999999
 10
-18.15874094308841
 20
-14.47302055955558
 30
2.964479440525663
 41
1.0
 10
-16.97096345015499
 20
-15.54885485589885
 30
1.88864514407121
 41
1.0
 10
-15.36982729705922
 20
-16.30260156652334
 30
1.134898433483913
 41
1.0
 10
-13.96243408357387
 20
-16.66636621088201
 30
0.7711337891166123
 41
1.0
 10
-13.05503283157677
 20
-16.79754150780683
 30
0.6399584921935185
 41
0.9999999999999998
 10
-12.2626672104243
 20
-16.84200210549212
 30
0.5954978945078205
 41
0.9999999999999999
 10
-11.09825684160161
 20
-16.83883509570991
 30
0.5986649042901214
 41
0.9999999999999998
 10
-8.597972153881848
 20
-16.84005792836717
 30
0.5974420716328266
 41
1.0
 10
-4.6862697795317
 20
-16.83956467309281
 30
0.5979353269071935
 41
1.0
 10
-0.0002262466110645
 20
-16.83972054416108
 30
0.5977794558389165
 41
1.0
 10
4.68717476597597
 20
-16.83968896621719
 30
0.5978110337828079
 41
0.9999999999999999
 10
8.203995304860088
 20
-16.83966679674763
 30
0.5978332032523598
 41
0.9999999999999998
 10
10.54549456594076
 20
-16.83975202001018
 30
0.5977479799898203
 41
1.0
 10
11.4179914312909
 20
-16.83950515730454
 30
0.5979948426954084
 41
0.9999999999999998
 10
11.96468720935425
 20
-16.84014782319059
 30
0.5973521768094932
 41
1.0
 10
12.28081351224066
 20
-16.83769067184627
 30
0.599809328153313
 41
1.0
 10
12.58578616202807
 20
-16.82425012141266
 30
0.613249878588864
 41
1.0
 10
13.15132213056827
 20
-16.78304343939179
 30
0.6544565605963607
 41
0.9999999999999999
 10
13.96363185212475
 20
-16.66642381770943
 30
0.7710761823425716
 41
1.0
 10
15.36974329630607
 20
-16.30243708955896
 30
1.135062910179481
 41
1.0
 10
16.97055743657215
 20
-15.54919916423728
 30
1.888300836841896
 41
0.9999999999999999
 10
18.15877254018989
 20
-14.4729890805279
 30
2.96451091654434
 41
1.0
 10
18.78155641332484
 20
-13.5010618044989
 30
3.936438204467656
 41
0.9999999999999998
 10
19.02679327042646
 20
-12.87758832503627
 30
4.559911646830841
 41
1.0
 10
19.13989772634928
 20
-12.38241480463367
 30
5.055085282088239
 41
1.0
 10
19.19727283985944
 20
-11.88787541074729
 30
5.549624111126864
 41
1.0
 10
19.18493106463546
 20
-11.39246937947417
 30
6.04503258231936
 41
1.0
 10
19.18879225184769
 20
-8.586319971536007
 30
8.85113870150482
 41
1.0
 10
19.18689450866182
 20
-3.543288836495933
 30
13.89440930742082
 41
1.0
 10
19.18764924628805
 20
2.592557199266615
 30
20.02954399394147
 41
1.0
 10
19.18746731145006
 20
7.588878573400665
 30
25.02798737516486
 41
1.0
 10
19.18750701112581
 20
10.34470414379983
 30
27.77809531651274
 41
0.9999999999999998
 10
19.18749947682628
 20
11.98571522345669
 30
29.43236065572594
 41
1.0
 10
19.18750013957007
 20
12.58830581047256
 30
29.9079176058831
 41
1.0
 10
19.18749996489345
 20
13.24654261642582
 30
30.30138713231156
 41
0.9999999999999999
 10
19.18750001098899
 20
14.14820669673398
 30
30.69509572765125
 41
1.0
 10
19.18749999632896
 20
15.32128912915512
 30
30.96974971189764
 41
0.9999999999999999
 10
19.18750000097439
 20
16.72051828488518
 30
30.96214112717026
 41
0.9999999999999998
 10
19.18749999974576
 20
18.05672286994486
 30
30.64214878315785
 41
0.9999999999999999
 10
19.18750000006872
 20
19.28664261726039
 30
30.03474490854656
 41
1.0
 10
19.18749999998118
 20
20.36259588456501
 30
29.15107818353997
 41
0.9999999999999998
 10
19.18750000000506
 20
21.21403874801654
 30
28.02959199420476
 41
1.0
 10
19.18749999999854
 20
21.78058222973263
 30
26.74801481320601
 41
0.9999999999999997
 10
19.18750000000033
 20
21.98417227951981
 30
25.67449864490342
 41
1.0
 10
19.18749999999995
 20
22.002270909289
 30
24.89007958551651
 41
1.0
 10
19.18750000000001
 20
21.99932955992091
 30
24.31558837328975
 41
1.0
 10
19.1875
 20
22.00018301695865
 30
23.64933163569787
 41
1.0
 10
19.1875
 20
21.99992808593776
 30
22.13432767183999
 41
1.0
 10
19.1875
 20
22.00002803700972
 30
19.86145836297609
 41
1.0
 10
19.18749999999999
 20
21.99999308304723
 30
16.83109184395384
 41
1.0
 10
19.1875
 20
22.00000232843183
 30
12.55249562922176
 41
0.9999999999999999
 10
19.18749999999999
 20
21.99999908983659
 30
7.108900276372984
 41
0.9999999999999998
 10
19.1875
 20
22.00000015076439
 30
2.675457216111212
 41
1.0
 10
19.1875
 20
22.00000001819597
 30
0.5000000008110586
 41
1.0
  0
SPLINE
  5
77
330
1F
100
AcDbEntity
  8
Layer 01
100
AcDbSpline
 70
     4
 71
     3
 72
    88
 73
    84
 74
     0
 42
0.0000000001
 43
0.0000000001
 40
0.0
 40
0.0
 40
0.0
 40
0.0
 40
13.5510146134954
 40
19.61145157668346
 40
22.64167005827749
 40
24.15677929907451
 40
25.1231578611965
 40
27.89532607459973
 40
29.29953053935857
 40
30.70373500411742
 40
32.04572395432365
 40
33.38771290452988
 40
34.80053364296445
 40
36.21335438139903
 40
36.97899469892825
 40
37.74463501645746
 40
38.51027533398667
 40
39.27591565151589
 40
44.73316672513977
 40
47.46179226195171
 40
50.19041779876365
 40
55.33424895827748
 40
60.47808011779132
 40
65.62191127730514
 40
70.76574243681898
 40
71.58064905703156
 40
72.39555567724415
 40
72.82928611903216
 40
73.26301656082016
 40
74.18616720736368
 40
75.1093178539072
 40
77.03355325807524
 40
78.95778866224329
 40
79.86480753396253
 40
80.77182640568178
 40
81.2859821995032
 40
81.80013799332461
 40
84.14388799332461
 40
88.83138799332461
 40
93.51888799332461
 40
98.20638799332461
 40
102.8938879933246
 40
104.0657629933246
 40
105.2376379933246
 40
105.4947158902353
 40
105.751793787146
 40
106.0088716840567
 40
106.2659495809674
 40
107.1729684526867
 40
108.0799873244059
 40
110.004222728574
 40
111.928458132742
 40
112.8516087792855
 40
113.774759425829
 40
114.208489867617
 40
114.642220309405
 40
115.4571269296176
 40
116.2720335498302
 40
126.5596958688577
 40
136.8473581878851
 40
142.3046092615089
 40
147.7618603351326
 40
148.5275006526618
 40
149.293140970191
 40
150.0587812877202
 40
150.8244216052494
 40
152.237242343684
 40
153.6500630821186
 40
154.9920520323248
 40
156.334040982531
 40
157.7382454472899
 40
159.1424499120487
 40
160.5285340187504
 40
161.914618125452
 40
162.397807406513
 40
162.880996687574
 40
163.6385513079724
 40
164.3961059283708
 40
167.4263244099646
 40
170.4565428915583
 40
173.4867613731521
 40
180.2622686798996
 40
186.7878093931575
 40
186.7878093931575
 40
186.7878093931575
 40
186.7878093931575
 10
-18.0
 20
23.18749999999999
 30
0.25
 41
1.0
 10
-18.0
 20
23.18743892096692
 30
4.766568170160205
 41
0.9999999999999998
 10
-18.0
 20
23.18772407376473
 30
11.30577002697985
 41
0.9999999999999998
 10
-18.0
 20
23.1870479240756
 30
18.84838394697083
 41
1.0
 10
-18.0
 20
23.18878356616792
 30
22.39546341688084
 41
0.9999999999999997
 10
-17.99999999999999
 20
23.18362976238631
 30
24.19655764751864
 41
1.0
 10
-18.00000000000004
 20
23.21105855986128
 30
26.14171302591305
 41
1.0
 10
-17.99999999999986
 20
22.58375783222706
 30
28.20963957887018
 41
1.0
 10
-18.00000000000038
 20
21.22629952984746
 30
29.97885958662418
 41
1.0
 10
-17.9999999999985
 20
19.93676648021752
 30
31.04170019247621
 41
0.9999999999999998
 10
-18.00000000000555
 20
18.46403322220598
 30
31.76793438546131
 41
1.0
 10
-17.99999999997876
 20
16.86331036843111
 30
32.15167484607281
 41
0.9999999999999998
 10
-18.00000000008003
 20
15.18720320539842
 30
32.16063875353761
 41
1.0
 10
-17.99999999976042
 20
13.78182419874919
 30
31.83202622340408
 41
0.9999999999999998
 10
-18.00000000076537
 20
12.70055406846375
 30
31.35889773513399
 41
0.9999999999999999
 10
-17.99999999695718
 20
11.91816059942646
 30
30.89387964628917
 41
0.9999999999999998
 10
-18.00000001140593
 20
11.17157971690413
 30
30.29941982601581
 41
1.0
 10
-17.99999984714751
 20
9.49221114600468
 30
28.60357505977262
 41
1.0
 10
-18.00000053703201
 20
7.397916308307812
 30
26.51707401192569
 41
0.9999999999999998
 10
-17.99999858267611
 20
4.819986561431627
 30
23.93646151800465
 41
1.0
 10
-18.00000769743443
 20
2.322297904970362
 30
21.4393036128507
 41
1.0
 10
-17.99996843339103
 20
-0.7459109570710751
 30
18.37092512960142
 41
1.0
 10
-18.00011128345741
 20
-4.383304528033674
 30
14.73358557565387
 41
0.9999999999999999
 10
-17.99958643277934
 20
-8.020233708966103
 30
11.09664142151961
 41
1.0
 10
-18.00099412288171
 20
-10.63757705603642
 30
8.479302301933094
 41
1.0
 10
-17.99774365808929
 20
-12.23380147277033
 30
6.883077067336806
 41
1.0
 10
-18.00818065021796
 20
-12.72057945239155
 30
6.396299168819632
 41
1.0
 10
-17.96029345088645
 20
-13.11598405031076
 30
6.000894552124617
 41
0.9999999999999999
 10
-17.86585796580225
 20
-13.53301366753228
 30
5.583864938720931
 41
1.0
 10
-17.66122228174247
 20
-14.05222168214885
 30
5.06465692287115
 41
0.9999999999999999
 10
-17.14117150117422
 20
-14.86412481292312
 30
4.252753792492259
 41
1.0
 10
-16.14983192090143
 20
-15.76209020375102
 30
3.354788401531167
 41
1.0
 10
-14.81264568790287
 20
-16.3913457663776
 30
2.72553283894913
 41
1.0
 10
-13.63950841328728
 20
-16.69500068118676
 30
2.421877924129638
 41
1.0
 10
-12.87641609966913
 20
-16.80450542810518
 30
2.312373177213279
 41
0.9999999999999998
 10
-12.23330875318203
 20
-16.84161992553127
 30
2.275258679786707
 41
0.9999999999999999
 10
-11.10909973235201
 20
-16.83897624945425
 30
2.277902355863836
 41
0.9999999999999998
 10
-8.593295064042358
 20
-16.83999701467121
 30
2.276881590646838
 41
1.0
 10
-4.687843399187067
 20
-16.839585267568
 30
2.277293337750052
 41
1.0
 10
0.0001410002719728
 20
-16.8397153815905
 30
2.277163223727545
 41
1.0
 10
4.687279398099174
 20
-16.83968902202431
 30
2.277189583293738
 41
0.9999999999999999
 10
8.203432131358968
 20
-16.83967051520598
 30
2.277208090112057
 41
0.9999999999999998
 10
10.54699644814806
 20
-16.83974165762995
 30
2.277136947688107
 41
1.0
 10
11.41359069430296
 20
-16.83953558246184
 30
2.277343022856154
 41
0.9999999999999998
 10
11.97564326528885
 20
-16.84007206477703
 30
2.276806540541124
 41
1.0
 10
12.23305782317819
 20
-16.83802089282774
 30
2.278857712489805
 41
1.0
 10
12.48932398419942
 20
-16.82680089585989
 30
2.290077709459986
 41
1.0
 10
12.96098315298422
 20
-16.79240268269269
 30
2.324475922611185
 41
0.9999999999999999
 10
13.63924829832718
 20
-16.695048698933
 30
2.421829906447357
 41
1.0
 10
14.81298912432774
 20
-16.39120849368419
 30
2.725670111320543
 41
1.0
 10
16.14934007101874
 20
-15.76237758973772
 30
3.354501016873093
 41
0.9999999999999999
 10
17.14123495454871
 20
-14.8640986131322
 30
4.252779988678634
 41
1.0
 10
17.66112559853504
 20
-14.05238703955123
 30
5.064491576508008
 41
0.9999999999999998
 10
17.86584475827241
 20
-13.53305628113512
 30
5.583822290482086
 41
1.0
 10
17.96026245984658
 20
-13.11618314612856
 30
6.000695563075101
 41
1.0
 10
18.00815819365408
 20
-12.72061657821814
 30
6.396261454345062
 41
1.0
 10
17.99785549824922
 20
-12.23398004749933
 30
6.882900907883618
 41
1.0
 10
18.00107874895883
 20
-9.425204125018375
 30
9.691624974052306
 41
1.0
 10
17.99949454655314
 20
-4.382863232043391
 30
14.73425273314711
 41
1.0
 10
18.00012458815836
 20
1.751561220702108
 30
20.86782504887983
 41
1.0
 10
17.99997271217739
 20
6.753594901896195
 30
25.87240071743493
 41
1.0
 10
18.00000585276365
 20
9.493708621914314
 30
28.60566519512194
 41
0.9999999999999998
 10
17.99999956326386
 20
11.17120204084476
 30
30.29903611061719
 41
1.0
 10
18.00000011651062
 20
11.91841533829044
 30
30.89407370433943
 41
1.0
 10
17.99999997069368
 20
12.70024415186713
 30
31.35873335320986
 41
0.9999999999999999
 10
18.0000000091734
 20
13.78212643371478
 30
31.83212742699873
 41
1.0
 10
17.99999999693548
 20
15.18682046273867
 30
32.16057847892359
 41
0.9999999999999999
 10
18.00000000081341
 20
16.86315814759191
 30
32.15164380900453
 41
0.9999999999999998
 10
17.99999999978776
 20
18.46377287600771
 30
31.76826529524086
 41
0.9999999999999999
 10
18.00000000005736
 20
19.93712659848726
 30
31.04068625951907
 41
1.0
 10
17.9999999999843
 20
21.22602560065623
 30
29.98201872216118
 41
0.9999999999999998
 10
18.00000000000422
 20
22.24598411043261
 30
28.63896246441251
 41
1.0
 10
17.99999999999878
 20
22.92465573986393
 30
27.10229091823463
 41
0.9999999999999997
 10
18.00000000000028
 20
23.16853972287327
 30
25.82054233677184
 41
1.0
 10
17.99999999999996
 20
23.19022035821602
 30
24.86912571683518
 41
1.0
 10
18.00000000000001
 20
23.18669686920726
 30
24.32177457960088
 41
1.0
 10
18.00000000000001
 20
23.18771923891437
 30
23.64764292301485
 41
1.0
 10
18.0
 20
23.18741385300549
 30
22.1349912288668
 41
1.0
 10
18.0
 20
23.18753358597813
 30
19.86119966315787
 41
1.0
 10
18.0
 20
23.18749171407269
 30
16.83115566725158
 41
1.0
 10
18.0
 20
23.18750278926539
 30
12.55247414458763
 41
0.9999999999999999
 10
18.0
 20
23.18749890970087
 30
7.108908733120177
 41
0.9999999999999998
 10
18.0
 20
23.18750018060302
 30
2.675455942181292
 41
1.0
 10
18.0
 20
23.18750002179725
 30
0.5000000087252836
 41
1.0
  0
SPLINE
  5
78
330
1F
100
AcDbEntity
  8
Layer 01
100
AcDbSpline
210
0.0
220
-0.000484130551199017
230
-0.9999998828087979
 70
    15
 71
     2
 72
    12
 73
     9
 74
     0
 42
0.0000000001
 43
0.0000000001
 40
-7.461282552275758
 40
-7.461282552275758
 40
-7.461282552275758
 40
-5.595961914206819
 40
-5.595961914206819
 40
-3.730641276137879
 40
-3.730641276137879
 40
-1.86532063806894
 40
-1.86532063806894
 40
0.0
 40
0.0
 40
0.0
 10
-16.8125
 20
21.99993089864246
 30
13.80110202731444
 41
1.0
 10
-16.8125
 20
20.81244457470638
 30
13.80167692579036
 41
0.7071067811865477
 10
-18.0
 20
20.81244457470638
 30
13.80167692579037
 41
1.0
 10
-19.1875
 20
20.81244457470638
 30
13.80167692579036
 41
0.7071067811865477
 10
-19.1875
 20
21.99993089864246
 30
13.80110202731444
 41
1.0
 10
-19.1875
 20
23.18741722257853
 30
13.80052712883852
 41
0.7071067811865477
 10
-18.0
 20
23.18741722257854
 30
13.80052712883852
 41
1.0
 10
-16.8125
 20
23.18741722257853
 30
13.80052712883852
 41
0.7071067811865477
 10
-16.8125
 20
21.99993089864246
 30
13.80110202731444
 41
1.0
  0
SPLINE
  5
79
330
1F
100
AcDbEntity
  8
Layer 01
100
AcDbSpline
210
2.093399516624505E-18
220
-0.001399413691120711
230
0.9999990208201812
 70
    15
 71
     2
 72
    12
 73
     9
 74
     0
 42
0.0000000001
 43
0.0000000001
 40
-7.461282552275758
 40
-7.461282552275758
 40
-7.461282552275758
 40
-5.595961914206819
 40
-5.595961914206819
 40
-3.730641276137879
 40
-3.730641276137879
 40
-1.86532063806894
 40
-1.86532063806894
 40
0.0
 40
0.0
 40
0.0
 10
-16.8125
 20
22.00019975149667
 30
19.86150514583291
 41
0.9999999999999999
 10
-16.8125
 20
20.81266021805862
 30
19.85984328512382
 41
0.7071067811865475
 10
-18.0
 20
20.81266021805861
 30
19.85984328512382
 41
0.9999999999999999
 10
-19.1875
 20
20.81266021805862
 30
19.85984328512382
 41
0.7071067811865475
 10
-19.1875
 20
22.00019975149667
 30
19.86150514583291
 41
0.9999999999999999
 10
-19.1875
 20
23.18773928493474
 30
19.86316700654202
 41
0.7071067811865475
 10
-18.0
 20
23.18773928493473
 30
19.86316700654201
 41
0.9999999999999999
 10
-16.8125
 20
23.18773928493474
 30
19.86316700654202
 41
0.7071067811865475
 10
-16.8125
 20
22.00019975149667
 30
19.86150514583291
 41
0.9999999999999999
  0
SPLINE
  5
7A
330
1F
100
AcDbEntity
  8
Layer 01
100
AcDbSpline
210
-7.509436849436709E-16
220
0.004024429627566091
230
0.9999919019502973
 70
    15
 71
     2
 72
    12
 73
     9
 74
     0
 42
0.0000000001
 43
0.0000000001
 40
-7.461282552275758
 40
-7.461282552275758
 40
-7.461282552275758
 40
-5.595961914206819
 40
-5.595961914206819
 40
-3.730641276137879
 40
-3.730641276137879
 40
-1.86532063806894
 40
-1.86532063806894
 40
0.0
 40
0.0
 40
0.0
 10
-16.8125
 20
21.99942562527736
 30
22.8914689075178
 41
0.9999999999999998
 10
-16.8125
 20
20.81203930155962
 30
22.89624749891561
 41
0.7071067811865475
 10
-18.0
 20
20.81203930155962
 30
22.89624749891561
 41
0.9999999999999998
 10
-19.1875
 20
20.81203930155962
 30
22.89624749891561
 41
0.7071067811865475
 10
-19.1875
 20
21.99942562527737
 30
22.8914689075178
 41
0.9999999999999998
 10
-19.1875
 20
23.18681194899511
 30
22.88669031611999
 41
0.7071067811865475
 10
-18.0
 20
23.18681194899511
 30
22.88669031611999
 41
0.9999999999999998
 10
-16.8125
 20
23.1868119489951
 30
22.88669031611999
 41
0.7071067811865475
 10
-16.8125
 20
21.99942562527736
 30
22.8914689075178
 41
0.9999999999999998
  0
SPLINE
  5
7B
330
1F
100
AcDbEntity
  8
Layer 01
100
AcDbSpline
210
4.464565681223249E-15
220
0.007667969672297632
230
-0.9999706006883925
 70
    15
 71
     2
 72
    12
 73
     9
 74
     0
 42
0.0000000001
 43
0.0000000001
 40
-7.461282552275758
 40
-7.461282552275758
 40
-7.461282552275758
 40
-5.595961914206819
 40
-5.595961914206819
 40
-3.730641276137879
 40
-3.730641276137879
 40
-1.86532063806894
 40
-1.86532063806894
 40
0.0
 40
0.0
 40
0.0
 10
-16.8125
 20
22.00109471589635
 30
24.40697666433302
 41
1.0
 10
-16.8125
 20
20.81337805727903
 30
24.39786902125703
 41
0.7071067811865477
 10
-18.0
 20
20.81337805727904
 30
24.39786902125703
 41
1.0
 10
-19.1875
 20
20.81337805727902
 30
24.39786902125702
 41
0.7071067811865477
 10
-19.1875
 20
22.00109471589634
 30
24.40697666433302
 41
1.0
 10
-19.1875
 20
23.18881137451366
 30
24.41608430740902
 41
0.7071067811865477
 10
-18.0
 20
23.18881137451367
 30
24.41608430740902
 41
1.0
 10
-16.8125
 20
23.18881137451367
 30
24.41608430740903
 41
0.7071067811865477
 10
-16.8125
 20
22.00109471589635
 30
24.40697666433302
 41
1.0
  0
SPLINE
  5
7C
330
1F
100
AcDbEntity
  8
Layer 01
100
AcDbSpline
210
-8.056777462645994E-15
220
-0.09066309846897175
230
0.9958816207642379
 70
    15
 71
     2
 72
    12
 73
     9
 74
     0
 42
0.0000000001
 43
0.0000000001
 40
-7.461282552275758
 40
-7.461282552275758
 40
-7.461282552275758
 40
-5.595961914206819
 40
-5.595961914206819
 40
-3.730641276137879
 40
-3.730641276137879
 40
-1.86532063806894
 40
-1.86532063806894
 40
0.0
 40
0.0
 40
0.0
 10
-16.81250000000001
 20
21.98527159060443
 30
25.37323873224425
 41
1.0
 10
-16.81250000000001
 20
20.80068661154206
 30
25.26539645223593
 41
0.7071067811865478
 10
-18.00000000000001
 20
20.80068661154205
 30
25.26539645223592
 41
1.0
 10
-19.18750000000001
 20
20.80068661154203
 30
25.26539645223591
 41
0.7071067811865478
 10
-19.18750000000001
 20
21.98527159060441
 30
25.37323873224423
 41
1.0
 10
-19.18750000000001
 20
23.16985656966678
 30
25.48108101225255
 41
0.7071067811865478
 10
-18.00000000000001
 20
23.1698565696668
 30
25.48108101225256
 41
1.0
 10
-16.81250000000001
 20
23.16985656966681
 30
25.48108101225257
 41
0.7071067811865478
 10
-16.81250000000001
 20
21.98527159060443
 30
25.37323873224425
 41
1.0
  0
SPLINE
  5
7D
330
1F
100
AcDbEntity
  8
Layer 01
100
AcDbSpline
210
-1.182820949692126E-14
220
-0.5096682999256661
230
0.8603709804792822
 70
    15
 71
     2
 72
    12
 73
     9
 74
     0
 42
0.0000000001
 43
0.0000000001
 40
-7.461282552275758
 40
-7.461282552275758
 40
-7.461282552275758
 40
-5.595961914206819
 40
-5.595961914206819
 40
-3.730641276137879
 40
-3.730641276137879
 40
-1.86532063806894
 40
-1.86532063806894
 40
0.0
 40
0.0
 40
0.0
 10
-16.81250000000004
 20
21.17043484908928
 30
27.99696831378869
 41
1.0
 10
-16.81250000000004
 20
20.14711970755328
 30
27.39077482248299
 41
0.7071067811865475
 10
-18.00000000000005
 20
20.14711970755323
 30
27.39077482248295
 41
1.0
 10
-19.18750000000006
 20
20.14711970755319
 30
27.3907748224829
 41
0.7071067811865475
 10
-19.18750000000006
 20
21.17043484908919
 30
27.9969683137886
 41
1.0
 10
-19.18750000000006
 20
22.1937499906252
 30
28.60316180509431
 41
0.7071067811865475
 10
-18.00000000000005
 20
22.19374999062524
 30
28.60316180509435
 41
1.0
 10
-16.81250000000004
 20
22.19374999062528
 30
28.60316180509439
 41
0.7071067811865475
 10
-16.81250000000004
 20
21.17043484908928
 30
27.99696831378869
 41
1.0
  0
SPLINE
  5
7E
330
1F
100
AcDbEntity
  8
Layer 01
100
AcDbSpline
210
6.201276027003010E-16
220
-0.6934049048640181
230
0.7205481510006962
 70
    15
 71
     2
 72
    12
 73
     9
 74
     0
 42
0.0000000001
 43
0.0000000001
 40
-7.461282552275758
 40
-7.461282552275758
 40
-7.461282552275758
 40
-5.595961914206819
 40
-5.595961914206819
 40
-3.730641276137879
 40
-3.730641276137879
 40
-1.86532063806894
 40
-1.86532063806894
 40
0.0
 40
0.0
 40
0.0
 10
-16.8125
 20
20.32328890600417
 30
29.11264805494553
 41
1.0
 10
-16.8125
 20
19.46763797669084
 30
28.28922973041951
 41
0.7071067811865477
 10
-18.0
 20
19.46763797669084
 30
28.28922973041951
 41
1.0
 10
-19.1875
 20
19.46763797669084
 30
28.28922973041951
 41
0.7071067811865477
 10
-19.1875
 20
20.32328890600417
 30
29.11264805494553
 41
1.0
 10
-19.1875
 20
21.17893983531749
 30
29.93606637947154
 41
0.7071067811865477
 10
-18.0
 20
21.1789398353175
 30
29.93606637947155
 41
1.0
 10
-16.8125
 20
21.17893983531748
 30
29.93606637947154
 41
0.7071067811865477
 10
-16.8125
 20
20.32328890600417
 30
29.11264805494553
 41
1.0
  0
SPLINE
  5
7F
330
1F
100
AcDbEntity
  8
Layer 01
100
AcDbSpline
210
8.879888843020837E-15
220
-0.8416146769903091
230
0.5400784530737156
 70
    15
 71
     2
 72
    12
 73
     9
 74
     0
 42
0.0000000001
 43
0.0000000001
 40
-7.461282552275758
 40
-7.461282552275758
 40
-7.461282552275758
 40
-5.595961914206819
 40
-5.595961914206819
 40
-3.730641276137879
 40
-3.730641276137879
 40
-1.86532063806894
 40
-1.86532063806894
 40
0.0
 40
0.0
 40
0.0
 10
-16.81250000000004
 20
19.24051390668287
 30
30.00188171883205
 41
0.9999999999999997
 10
-16.81250000000003
 20
18.59916226579311
 30
29.00245107868583
 41
0.7071067811865475
 10
-18.00000000000004
 20
18.59916226579309
 30
29.00245107868581
 41
0.9999999999999997
 10
-19.18750000000005
 20
18.59916226579304
 30
29.00245107868576
 41
0.7071067811865475
 10
-19.18750000000005
 20
19.24051390668281
 30
30.00188171883198
 41
0.9999999999999997
 10
-19.18750000000005
 20
19.88186554757257
 30
31.00131235897818
 41
0.7071067811865475
 10
-18.00000000000004
 20
19.8818655475726
 30
31.00131235897821
 41
0.9999999999999997
 10
-16.81250000000003
 20
19.88186554757262
 30
31.00131235897824
 41
0.7071067811865475
 10
-16.81250000000004
 20
19.24051390668287
 30
30.00188171883205
 41
0.9999999999999997
  0
SPLINE
  5
80
330
1F
100
AcDbEntity
  8
Layer 01
100
AcDbSpline
210
-2.754087355217555E-15
220
-0.9404340460462949
230
0.3399761830437473
 70
    15
 71
     2
 72
    12
 73
     9
 74
     0
 42
0.0000000001
 43
0.0000000001
 40
-7.461282552275758
 40
-7.461282552275758
 40
-7.461282552275758
 40
-5.595961914206819
 40
-5.595961914206819
 40
-3.730641276137879
 40
-3.730641276137879
 40
-1.86532063806894
 40
-1.86532063806894
 40
0.0
 40
0.0
 40
0.0
 10
-16.8125
 20
18.03985709826245
 30
30.5948229020392
 41
1.0
 10
-16.8125
 20
17.63613538089801
 30
29.47805747235924
 41
0.7071067811865475
 10
-18.0
 20
17.636135380898
 30
29.47805747235923
 41
1.0
 10
-19.1875
 20
17.63613538089801
 30
29.47805747235924
 41
0.7071067811865475
 10
-19.1875
 20
18.03985709826245
 30
30.5948229020392
 41
1.0
 10
-19.1875
 20
18.44357881562691
 30
31.71158833171918
 41
0.7071067811865475
 10
-18.0
 20
18.4435788156269
 30
31.71158833171918
 41
1.0
 10
-16.8125
 20
18.4435788156269
 30
31.71158833171918
 41
0.7071067811865475
 10
-16.8125
 20
18.03985709826245
 30
30.5948229020392
 41
1.0
  0
SPLINE
  5
81
330
1F
100
AcDbEntity
  8
Layer 01
100
AcDbSpline
210
-3.846267896935001E-13
220
-0.9924162278027608
230
0.1229228652193666
 70
    15
 71
     2
 72
    12
 73
     9
 74
     0
 42
0.0000000001
 43
0.0000000001
 40
-7.461282552275758
 40
-7.461282552275758
 40
-7.461282552275758
 40
-5.595961914206819
 40
-5.595961914206819
 40
-3.730641276137879
 40
-3.730641276137879
 40
-1.86532063806894
 40
-1.86532063806894
 40
0.0
 40
0.0
 40
0.0
 10
-16.8124999999995
 20
16.73753161471596
 30
30.90671722002319
 41
0.9999999999999999
 10
-16.8124999999995
 20
16.59156073483789
 30
29.7282231317255
 41
0.7071067811865476
 10
-17.99999999999938
 20
16.59156073483842
 30
29.72822313172603
 41
0.9999999999999999
 10
-19.18749999999926
 20
16.59156073483895
 30
29.72822313172655
 41
0.7071067811865476
 10
-19.18749999999926
 20
16.73753161471701
 30
30.90671722002425
 41
0.9999999999999999
 10
-19.18749999999926
 20
16.88350249459507
 30
32.08521130832195
 41
0.7071067811865476
 10
-17.99999999999938
 20
16.88350249459455
 30
32.0852113083214
 41
0.9999999999999999
 10
-16.8124999999995
 20
16.88350249459402
 30
32.08521130832089
 41
0.7071067811865476
 10
-16.8124999999995
 20
16.73753161471596
 30
30.90671722002319
 41
0.9999999999999999
  0
SPLINE
  5
82
330
1F
100
AcDbEntity
  8
Layer 01
100
AcDbSpline
210
-1.235113504239110E-15
220
-0.9937060435077641
230
-0.112019190749379
 70
    15
 71
     2
 72
    12
 73
     9
 74
     0
 42
0.0000000001
 43
0.0000000001
 40
-7.461282552275758
 40
-7.461282552275758
 40
-7.461282552275758
 40
-5.595961914206819
 40
-5.595961914206819
 40
-3.730641276137879
 40
-3.730641276137879
 40
-1.86532063806894
 40
-1.86532063806894
 40
0.0
 40
0.0
 40
0.0
 10
-16.8125
 20
15.32788485550371
 30
30.91445488680802
 41
1.0
 10
-16.8125
 20
15.4609076445186
 30
29.73442896014254
 41
0.7071067811865477
 10
-18.0
 20
15.4609076445186
 30
29.73442896014254
 41
1.0
 10
-19.1875
 20
15.4609076445186
 30
29.73442896014254
 41
0.7071067811865477
 10
-19.1875
 20
15.32788485550371
 30
30.91445488680802
 41
1.0
 10
-19.1875
 20
15.19486206648883
 30
32.09448081347348
 41
0.7071067811865477
 10
-18.0
 20
15.19486206648883
 30
32.09448081347348
 41
1.0
 10
-16.8125
 20
15.19486206648883
 30
32.09448081347348
 41
0.7071067811865477
 10
-16.8125
 20
15.32788485550371
 30
30.91445488680802
 41
1.0
  0
SPLINE
  5
83
330
1F
100
AcDbEntity
  8
Layer 01
100
AcDbSpline
210
8.909538875704644E-11
220
-0.9400881073532008
230
-0.3409315919844872
 70
    15
 71
     2
 72
    12
 73
     9
 74
     0
 42
0.0000000001
 43
0.0000000001
 40
-7.461282552275758
 40
-7.461282552275758
 40
-7.461282552275758
 40
-5.595961914206819
 40
-5.595961914206819
 40
-3.730641276137879
 40
-3.730641276137879
 40
-1.86532063806894
 40
-1.86532063806894
 40
0.0
 40
0.0
 40
0.0
 10
-16.81250000007791
 20
13.95543497263207
 30
30.59313730659854
 41
0.9999999999999999
 10
-16.81250000007791
 20
14.36025805214455
 30
29.47687418643248
 41
0.7071067811865476
 10
-18.00000000009713
 20
14.36025805206196
 30
29.47687418634989
 41
0.9999999999999999
 10
-19.18750000011636
 20
14.36025805197937
 30
29.4768741862673
 41
0.7071067811865476
 10
-19.18750000011636
 20
13.95543497246688
 30
30.59313730643336
 41
0.9999999999999999
 10
-19.18750000011636
 20
13.5506118929544
 30
31.70940042659942
 41
0.7071067811865476
 10
-18.00000000009713
 20
13.55061189303699
 30
31.70940042668202
 41
0.9999999999999999
 10
-16.81250000007791
 20
13.55061189311958
 30
31.7094004267646
 41
0.7071067811865476
 10
-16.81250000007791
 20
13.95543497263207
 30
30.59313730659854
 41
0.9999999999999999
  0
SPLINE
  5
84
330
1F
100
AcDbEntity
  8
Layer 01
100
AcDbSpline
210
-1.721182061142174E-15
220
-0.889140421022157
230
-0.4576344739030717
 70
    15
 71
     2
 72
    12
 73
     9
 74
     0
 42
0.0000000001
 43
0.0000000001
 40
-7.461282552275758
 40
-7.461282552275758
 40
-7.461282552275758
 40
-5.595961914206819
 40
-5.595961914206819
 40
-3.730641276137879
 40
-3.730641276137879
 40
-1.86532063806894
 40
-1.86532063806894
 40
0.0
 40
0.0
 40
0.0
 10
-16.8125
 20
13.25419315658157
 30
30.28706115189439
 41
0.9999999999999997
 10
-16.8125
 20
13.79763409434146
 30
29.23120690193057
 41
0.7071067811865475
 10
-18.0
 20
13.79763409434146
 30
29.23120690193058
 41
0.9999999999999997
 10
-19.1875
 20
13.79763409434146
 30
29.23120690193057
 41
0.7071067811865475
 10
-19.1875
 20
13.25419315658157
 30
30.28706115189439
 41
0.9999999999999997
 10
-19.1875
 20
12.71075221882167
 30
31.34291540185819
 41
0.7071067811865475
 10
-18.0
 20
12.71075221882168
 30
31.3429154018582
 41
0.9999999999999997
 10
-16.8125
 20
12.71075221882167
 30
31.34291540185819
 41
0.7071067811865475
 10
-16.8125
 20
13.25419315658157
 30
30.28706115189439
 41
0.9999999999999997
  0
SPLINE
  5
85
330
1F
100
AcDbEntity
  8
Layer 01
100
AcDbSpline
210
-2.080382350520481E-15
220
0.8236643337214578
230
0.5670776537258254
 70
    15
 71
     2
 72
    12
 73
     9
 74
     0
 42
0.0000000001
 43
0.0000000001
 40
-7.461282552275758
 40
-7.461282552275758
 40
-7.461282552275758
 40
-5.595961914206819
 40
-5.595961914206819
 40
-3.730641276137879
 40
-3.730641276137879
 40
-1.86532063806894
 40
-1.86532063806894
 40
0.0
 40
0.0
 40
0.0
 10
-16.8125
 20
12.59753407764503
 30
29.89420462809018
 41
0.9999999999999999
 10
-16.8125
 20
13.27093879144445
 30
28.91610323179595
 41
0.7071067811865476
 10
-18.0
 20
13.27093879144445
 30
28.91610323179594
 41
0.9999999999999999
 10
-19.1875
 20
13.27093879144445
 30
28.91610323179595
 41
0.7071067811865476
 10
-19.1875
 20
12.59753407764503
 30
29.89420462809018
 41
0.9999999999999999
 10
-19.1875
 20
11.92412936384562
 30
30.87230602438441
 41
0.7071067811865476
 10
-18.0
 20
11.92412936384562
 30
30.87230602438441
 41
0.9999999999999999
 10
-16.8125
 20
11.92412936384562
 30
30.87230602438441
 41
0.7071067811865476
 10
-16.8125
 20
12.59753407764503
 30
29.89420462809018
 41
0.9999999999999999
  0
SPLINE
  5
86
330
1F
100
AcDbEntity
  8
Layer 01
100
AcDbSpline
210
3.888067922405670E-15
220
-0.7448184038315588
230
-0.667267221818822
 70
    15
 71
     2
 72
    12
 73
     9
 74
     0
 42
0.0000000001
 43
0.0000000001
 40
-7.461282552275758
 40
-7.461282552275758
 40
-7.461282552275758
 40
-5.595961914206819
 40
-5.595961914206819
 40
-3.730641276137879
 40
-3.730641276137879
 40
-1.86532063806894
 40
-1.86532063806894
 40
0.0
 40
0.0
 40
0.0
 10
-16.8125
 20
11.99639666908705
 30
29.42112904875078
 41
1.0
 10
-16.8125
 20
12.7887764949969
 30
28.53665719420081
 41
0.7071067811865476
 10
-18.0
 20
12.7887764949969
 30
28.5366571942008
 41
1.0
 10
-19.1875
 20
12.7887764949969
 30
28.53665719420081
 41
0.7071067811865476
 10
-19.1875
 20
11.99639666908705
 30
29.42112904875078
 41
1.0
 10
-19.1875
 20
11.2040168431772
 30
30.30560090330077
 41
0.7071067811865476
 10
-18.0
 20
11.2040168431772
 30
30.30560090330075
 41
1.0
 10
-16.8125
 20
11.2040168431772
 30
30.30560090330076
 41
0.7071067811865476
 10
-16.8125
 20
11.99639666908705
 30
29.42112904875078
 41
1.0
  0
SPLINE
  5
87
330
1F
100
AcDbEntity
  8
Layer 01
100
AcDbSpline
210
-3.351887974481155E-8
220
-0.7187904574826742
230
-0.6952267818718196
 70
    15
 71
     2
 72
    12
 73
     9
 74
     0
 42
0.0000000001
 43
0.0000000001
 40
-7.461282552275758
 40
-7.461282552275758
 40
-7.461282552275758
 40
-5.595961914206819
 40
-5.595961914206819
 40
-3.730641276137879
 40
-3.730641276137879
 40
-1.86532063806894
 40
-1.86532063806894
 40
0.0
 40
0.0
 40
0.0
 10
-16.81249997344607
 20
11.44639080857009
 30
28.88877462234912
 41
1.0
 10
-16.81249997344607
 20
12.27256246575515
 30
28.03460110816373
 41
0.7071067811865476
 10
-17.99999996689322
 20
12.2725624939045
 30
28.03460113631307
 41
1.0
 10
-19.18749996034038
 20
12.27256252205385
 30
28.03460116446242
 41
0.7071067811865476
 10
-19.18749996034038
 20
11.44639086486879
 30
28.88877467864782
 41
1.0
 10
-19.18749996034038
 20
10.62021920768373
 30
29.74294819283325
 41
0.7071067811865476
 10
-17.99999996689322
 20
10.62021917953438
 30
29.74294816468388
 41
1.0
 10
-16.81249997344607
 20
10.62021915138503
 30
29.74294813653454
 41
0.7071067811865476
 10
-16.81249997344607
 20
11.44639080857009
 30
28.88877462234912
 41
1.0
  0
SPLINE
  5
88
330
1F
100
AcDbEntity
  8
Layer 01
100
AcDbSpline
210
-1.868399226145467E-7
220
-0.7083006532440769
230
-0.7059108899953159
 70
    15
 71
     2
 72
    12
 73
     9
 74
     0
 42
0.0000000001
 43
0.0000000001
 40
-7.461282552275758
 40
-7.461282552275758
 40
-7.461282552275758
 40
-5.595961914206819
 40
-5.595961914206819
 40
-3.730641276137879
 40
-3.730641276137879
 40
-1.86532063806894
 40
-1.86532063806894
 40
0.0
 40
0.0
 40
0.0
 10
-16.8124998520042
 20
7.589721713504386
 30
25.02771669243327
 41
0.9999999999999999
 10
-16.81249985200421
 20
8.428040990609578
 30
24.18655940187971
 41
0.7071067811865477
 10
-17.99999981548256
 20
8.428041147497284
 30
24.18655955876742
 41
0.9999999999999999
 10
-19.18749977896092
 20
8.428041304384987
 30
24.18655971565512
 41
0.7071067811865477
 10
-19.18749977896092
 20
7.589722027279796
 30
25.02771700620868
 41
0.9999999999999999
 10
-19.18749977896091
 20
6.751402750174609
 30
25.86887429676223
 41
0.7071067811865477
 10
-17.99999981548256
 20
6.751402593286904
 30
25.86887413987453
 41
0.9999999999999999
 10
-16.81249985200421
 20
6.751402436399197
 30
25.86887398298681
 41
0.7071067811865477
 10
-16.8124998520042
 20
7.589721713504386
 30
25.02771669243327
 41
0.9999999999999999
  0
SPLINE
  5
89
330
1F
100
AcDbEntity
  8
Layer 01
100
AcDbSpline
210
7.933098738612770E-16
220
-0.7071067811865496
230
-0.7071067811865455
 70
    15
 71
     2
 72
    12
 73
     9
 74
     0
 42
0.0000000001
 43
0.0000000001
 40
-7.461282552275758
 40
-7.461282552275758
 40
-7.461282552275758
 40
-5.595961914206819
 40
-5.595961914206819
 40
-3.730641276137879
 40
-3.730641276137879
 40
-1.86532063806894
 40
-1.86532063806894
 40
0.0
 40
0.0
 40
0.0
 10
-16.8125
 20
5.660475511620642
 30
23.09797551162066
 41
1.0
 10
-16.8125
 20
6.500164814279663
 30
22.25828620896163
 41
0.7071067811865476
 10
-18.0
 20
6.500164814279663
 30
22.25828620896164
 41
1.0
 10
-19.1875
 20
6.500164814279665
 30
22.25828620896163
 41
0.7071067811865476
 10
-19.1875
 20
5.660475511620639
 30
23.09797551162066
 41
1.0
 10
-19.1875
 20
4.820786208961613
 30
23.93766481427969
 41
0.7071067811865476
 10
-18.0
 20
4.820786208961613
 30
23.93766481427969
 41
1.0
 10
-16.8125
 20
4.820786208961614
 30
23.93766481427969
 41
0.7071067811865476
 10
-16.8125
 20
5.660475511620642
 30
23.09797551162066
 41
1.0
  0
SPLINE
  5
8A
330
1F
100
AcDbEntity
  8
Layer 01
100
AcDbSpline
210
1.979412917324770E-6
220
-0.7069989722670328
230
-0.7072145736687283
 70
    15
 71
     2
 72
    12
 73
     9
 74
     0
 42
0.0000000001
 43
0.0000000001
 40
-7.461282552275758
 40
-7.461282552275758
 40
-7.461282552275758
 40
-5.595961914206819
 40
-5.595961914206819
 40
-3.730641276137879
 40
-3.730641276137879
 40
-1.86532063806894
 40
-1.86532063806894
 40
0.0
 40
0.0
 40
0.0
 10
-16.81250156789013
 20
3.731044088780445
 30
21.16849943531385
 41
1.0
 10
-16.81250156789012
 20
4.570856985367917
 30
20.32894256404656
 41
0.7071067811865478
 10
-18.00000195480605
 20
4.570855323275503
 30
20.32894090195414
 41
1.0
 10
-19.18750234172196
 20
4.570853661183087
 30
20.32893923986173
 41
0.7071067811865478
 10
-19.18750234172197
 20
3.731040764595612
 30
21.16849611112902
 41
1.0
 10
-19.18750234172196
 20
2.891227868008127
 30
22.0080529823963
 41
0.7071067811865478
 10
-18.00000195480605
 20
2.891229530100547
 30
22.00805464448872
 41
1.0
 10
-16.81250156789013
 20
2.891231192192963
 30
22.00805630658113
 41
0.7071067811865478
 10
-16.81250156789013
 20
3.731044088780445
 30
21.16849943531385
 41
1.0
  0
SPLINE
  5
8B
330
1F
100
AcDbEntity
  8
Layer 01
100
AcDbSpline
210
3.966549369306385E-16
220
-0.7071067811865486
230
-0.7071067811865465
 70
    15
 71
     2
 72
    12
 73
     9
 74
     0
 42
0.0000000001
 43
0.0000000001
 40
-7.461282552275758
 40
-7.461282552275758
 40
-7.461282552275758
 40
-5.595961914206819
 40
-5.595961914206819
 40
-3.730641276137879
 40
-3.730641276137879
 40
-1.86532063806894
 40
-1.86532063806894
 40
0.0
 40
0.0
 40
0.0
 10
-16.8125
 20
0.0937998991059347
 30
17.53129989910595
 41
1.0
 10
-16.8125
 20
0.9334892017649558
 30
16.69161059644692
 41
0.7071067811865476
 10
-18.0
 20
0.9334892017649572
 30
16.69161059644692
 41
1.0
 10
-19.1875
 20
0.9334892017649575
 30
16.69161059644692
 41
0.7071067811865476
 10
-19.1875
 20
0.0937998991059333
 30
17.53129989910595
 41
1.0
 10
-19.1875
 20
-0.7458894035530926
 30
18.37098920176497
 41
0.7071067811865476
 10
-18.0
 20
-0.7458894035530919
 30
18.37098920176497
 41
1.0
 10
-16.8125
 20
-0.7458894035530904
 30
18.37098920176497
 41
0.7071067811865476
 10
-16.8125
 20
0.0937998991059347
 30
17.53129989910595
 41
1.0
  0
SPLINE
  5
8C
330
1F
100
AcDbEntity
  8
Layer 01
100
AcDbSpline
210
-1.322176440354754E-15
220
-0.7071067811865477
230
-0.7071067811865474
 70
    15
 71
     2
 72
    12
 73
     9
 74
     0
 42
0.0000000001
 43
0.0000000001
 40
-7.461282552275758
 40
-7.461282552275758
 40
-7.461282552275758
 40
-5.595961914206819
 40
-5.595961914206819
 40
-3.730641276137879
 40
-3.730641276137879
 40
-1.86532063806894
 40
-1.86532063806894
 40
0.0
 40
0.0
 40
0.0
 10
-16.8125
 20
-3.543537827036289
 30
13.89396217296373
 41
0.9999999999999998
 10
-16.8125
 20
-2.703848524377263
 30
13.0542728703047
 41
0.7071067811865474
 10
-18.0
 20
-2.703848524377266
 30
13.0542728703047
 41
0.9999999999999998
 10
-19.1875
 20
-2.703848524377257
 30
13.0542728703047
 41
0.7071067811865474
 10
-19.1875
 20
-3.543537827036288
 30
13.89396217296373
 41
0.9999999999999998
 10
-19.1875
 20
-4.383227129695308
 30
14.73365147562275
 41
0.7071067811865474
 10
-18.0
 20
-4.383227129695316
 30
14.73365147562275
 41
0.9999999999999998
 10
-16.8125
 20
-4.383227129695312
 30
14.73365147562275
 41
0.7071067811865474
 10
-16.8125
 20
-3.543537827036289
 30
13.89396217296373
 41
0.9999999999999998
  0
SPLINE
  5
8D
330
1F
100
AcDbEntity
  8
Layer 01
100
AcDbSpline
210
-1.586623261213354E-15
220
-0.7071067811865482
230
-0.7071067811865468
 70
    15
 71
     2
 72
    12
 73
     9
 74
     0
 42
0.0000000001
 43
0.0000000001
 40
-7.461282552275758
 40
-7.461282552275758
 40
-7.461282552275758
 40
-5.595961914206819
 40
-5.595961914206819
 40
-3.730641276137879
 40
-3.730641276137879
 40
-1.86532063806894
 40
-1.86532063806894
 40
0.0
 40
0.0
 40
0.0
 10
-16.8125
 20
-7.180698422208543
 30
10.25680157779147
 41
1.0
 10
-16.8125
 20
-6.341009119549518
 30
9.417112275132446
 41
0.7071067811865475
 10
-18.0
 20
-6.34100911954952
 30
9.417112275132446
 41
1.0
 10
-19.1875
 20
-6.341009119549513
 30
9.417112275132444
 41
0.7071067811865475
 10
-19.1875
 20
-7.180698422208543
 30
10.25680157779147
 41
1.0
 10
-19.1875
 20
-8.020387724867563
 30
11.0964908804505
 41
0.7071067811865475
 10
-18.0
 20
-8.020387724867568
 30
11.0964908804505
 41
1.0
 10
-16.8125
 20
-8.020387724867563
 30
11.0964908804505
 41
0.7071067811865475
 10
-16.8125
 20
-7.180698422208543
 30
10.25680157779147
 41
1.0
  0
SPLINE
  5
8E
330
1F
100
AcDbEntity
  8
Layer 01
100
AcDbSpline
210
-0.001165514220460124
220
-0.7071066517306244
230
-0.7071059500915741
 70
    15
 71
     2
 72
    12
 73
     9
 74
     0
 42
0.0000000001
 43
0.0000000001
 40
-7.461282552275758
 40
-7.461282552275758
 40
-7.461282552275758
 40
-5.595961914206819
 40
-5.595961914206819
 40
-3.730641276137879
 40
-3.730641276137879
 40
-1.86532063806894
 40
-1.86532063806894
 40
0.0
 40
0.0
 40
0.0
 10
-16.81157697463027
 20
-10.81897734532943
 30
6.61852279998875
 41
1.0
 10
-16.81157697463027
 20
-9.97928844488877
 30
5.778833066351134
 41
0.7071067811865478
 10
-17.99884919514317
 20
-9.978309962124028
 30
5.779811549115879
 41
1.0
 10
-19.18612141565607
 20
-9.977331479359286
 30
5.780790031880619
 41
0.7071067811865478
 10
-19.18612141565607
 20
-10.81702037979995
 30
6.620479765518237
 41
1.0
 10
-19.18612141565607
 20
-11.65670928024061
 30
7.460169499155851
 41
0.7071067811865478
 10
-17.99884919514317
 20
-11.65768776300536
 30
7.459191016391109
 41
1.0
 10
-16.81157697463027
 20
-11.65866624577009
 30
7.458212533626363
 41
0.7071067811865478
 10
-16.81157697463027
 20
-10.81897734532943
 30
6.61852279998875
 41
1.0
  0
SPLINE
  5
8F
330
1F
100
AcDbEntity
  8
Layer 01
100
AcDbSpline
210
2.644275995458501E-16
220
-0.7071067811865497
230
-0.7071067811865452
 70
    15
 71
     2
 72
    12
 73
     9
 74
     0
 42
0.0000000001
 43
0.0000000001
 40
-7.461282552275758
 40
-7.461282552275758
 40
-7.461282552275758
 40
-5.595961914206819
 40
-5.595961914206819
 40
-3.730641276137879
 40
-3.730641276137879
 40
-1.86532063806894
 40
-1.86532063806894
 40
0.0
 40
0.0
 40
0.0
 10
-16.8125
 20
-11.3942107597923
 30
6.043289240207708
 41
1.0
 10
-16.8125
 20
-10.55452145713328
 30
5.203599937548683
 41
0.7071067811865476
 10
-18.0
 20
-10.55452145713328
 30
5.203599937548682
 41
1.0
 10
-19.1875
 20
-10.55452145713328
 30
5.20359993754868
 41
0.7071067811865476
 10
-19.1875
 20
-11.3942107597923
 30
6.043289240207706
 41
1.0
 10
-19.1875
 20
-12.23390006245132
 30
6.882978542866732
 41
0.7071067811865476
 10
-18.0
 20
-12.23390006245133
 30
6.882978542866732
 41
1.0
 10
-16.8125
 20
-12.23390006245132
 30
6.88297854286673
 41
0.7071067811865476
 10
-16.8125
 20
-11.3942107597923
 30
6.043289240207708
 41
1.0
  0
SPLINE
  5
90
330
1F
100
AcDbEntity
  8
Layer 01
100
AcDbSpline
210
0.04476718442046071
220
-0.7063978773182001
230
-0.7063978610665562
 70
    15
 71
     2
 72
    12
 73
     9
 74
     0
 42
0.0000000001
 43
0.0000000001
 40
-7.461282552275758
 40
-7.461282552275758
 40
-7.461282552275758
 40
-5.595961914206819
 40
-5.595961914206819
 40
-3.730641276137879
 40
-3.730641276137879
 40
-1.86532063806894
 40
-1.86532063806894
 40
0.0
 40
0.0
 40
0.0
 10
-16.8063082059235
 20
-11.93276725217708
 30
5.504732751192217
 41
0.9999999999999998
 10
-16.80630820592351
 20
-11.09307795884374
 30
4.665043438540682
 41
0.7071067811865476
 10
-17.99228029971486
 20
-11.13065779434139
 30
4.627463603043036
 41
0.9999999999999998
 10
-19.17825239350621
 20
-11.16823762983904
 30
4.589883767545387
 41
0.7071067811865476
 10
-19.17825239350621
 20
-12.00792692317238
 30
5.429573080196921
 41
0.9999999999999998
 10
-19.17825239350621
 20
-12.84761621650572
 30
6.269262392848454
 41
0.7071067811865476
 10
-17.99228029971486
 20
-12.81003638100808
 30
6.306842228346104
 41
0.9999999999999998
 10
-16.80630820592351
 20
-12.77245654551042
 30
6.344422063843751
 41
0.7071067811865476
 10
-16.8063082059235
 20
-11.93276725217708
 30
5.504732751192217
 41
0.9999999999999998
  0
SPLINE
  5
91
330
1F
100
AcDbEntity
  8
Layer 01
100
AcDbSpline
210
0.1222053379411396
220
-0.7018069019960889
230
-0.7018069019960861
 70
    15
 71
     2
 72
    12
 73
     9
 74
     0
 42
0.0000000001
 43
0.0000000001
 40
-7.461282552275758
 40
-7.461282552275758
 40
-7.461282552275758
 40
-5.595961914206819
 40
-5.595961914206819
 40
-3.730641276137879
 40
-3.730641276137879
 40
-1.86532063806894
 40
-1.86532063806894
 40
0.0
 40
0.0
 40
0.0
 10
-16.7764295375427
 20
-12.173218136816
 30
5.264281863184009
 41
0.9999999999999998
 10
-16.7764295375427
 20
-11.33352883415697
 30
4.424592560524983
 41
0.7071067811865476
 10
-17.95502903381947
 20
-11.43614334915398
 30
4.321978045527977
 41
0.9999999999999998
 10
-19.13362853009624
 20
-11.53875786415099
 30
4.219363530530967
 41
0.7071067811865476
 10
-19.13362853009624
 20
-12.37844716681001
 30
5.059052833189994
 41
0.9999999999999998
 10
-19.13362853009624
 20
-13.21813646946903
 30
5.898742135849017
 41
0.7071067811865476
 10
-17.95502903381947
 20
-13.11552195447203
 30
6.001356650846025
 41
0.9999999999999998
 10
-16.7764295375427
 20
-13.01290743947502
 30
6.10397116584303
 41
0.7071067811865476
 10
-16.7764295375427
 20
-12.173218136816
 30
5.264281863184009
 41
0.9999999999999998
  0
SPLINE
  5
92
330
1F
100
AcDbEntity
  8
Layer 01
100
AcDbSpline
210
0.1941767042911035
220
-0.6936481113949223
230
-0.6936481132886494
 70
    15
 71
     2
 72
    12
 73
     9
 74
     0
 42
0.0000000001
 43
0.0000000001
 40
-7.461282552275758
 40
-7.461282552275758
 40
-7.461282552275758
 40
-5.595961914206819
 40
-5.595961914206819
 40
-3.730641276137879
 40
-3.730641276137879
 40
-1.86532063806894
 40
-1.86532063806894
 40
0.0
 40
0.0
 40
0.0
 10
-16.72149355375389
 20
-12.41555286432569
 30
5.021947135274496
 41
1.0
 10
-16.72149355375388
 20
-11.57586356056001
 30
4.182257833801253
 41
0.7071067811865477
 10
-17.88653815718823
 20
-11.73893220979433
 30
4.019189184566936
 41
1.0
 10
-19.05158276062257
 20
-11.90200085902865
 30
3.856120535332617
 41
0.7071067811865477
 10
-19.05158276062257
 20
-12.74169016279432
 30
4.695809836805862
 41
1.0
 10
-19.05158276062257
 20
-13.58137946655999
 30
5.535499138279103
 41
0.7071067811865477
 10
-17.88653815718823
 20
-13.41831081732568
 30
5.698567787513423
 41
1.0
 10
-16.72149355375388
 20
-13.25524216809137
 30
5.861636436747738
 41
0.7071067811865477
 10
-16.72149355375389
 20
-12.41555286432569
 30
5.021947135274496
 41
1.0
  0
SPLINE
  5
93
330
1F
100
AcDbEntity
  8
Layer 01
100
AcDbSpline
210
-0.3416394692589091
220
0.6645609351460895
230
0.6645609351460903
 70
    15
 71
     2
 72
    12
 73
     9
 74
     0
 42
0.0000000001
 43
0.0000000001
 40
-7.461282552275758
 40
-7.461282552275758
 40
-7.461282552275758
 40
-5.595961914206819
 40
-5.595961914206819
 40
-3.730641276137879
 40
-3.730641276137879
 40
-1.86532063806894
 40
-1.86532063806894
 40
0.0
 40
0.0
 40
0.0
 10
-16.52293710862719
 20
-12.91994181778163
 30
4.517558182218376
 41
0.9999999999999998
 10
-16.52293710862718
 20
-12.08025251512261
 30
3.677868879559351
 41
0.7071067811865475
 10
-17.63898652504168
 20
-12.36712352282542
 30
3.390997871856538
 41
0.9999999999999998
 10
-18.75503594145618
 20
-12.65399453052823
 30
3.104126864153724
 41
0.7071067811865475
 10
-18.75503594145618
 20
-13.49368383318726
 30
3.943816166812749
 41
0.9999999999999998
 10
-18.75503594145618
 20
-14.33337313584628
 30
4.783505469471773
 41
0.7071067811865475
 10
-17.63898652504168
 20
-14.04650212814347
 30
5.070376477174587
 41
0.9999999999999998
 10
-16.52293710862718
 20
-13.75963112044066
 30
5.357247484877399
 41
0.7071067811865475
 10
-16.52293710862719
 20
-12.91994181778163
 30
4.517558182218376
 41
0.9999999999999998
  0
SPLINE
  5
94
330
1F
100
AcDbEntity
  8
Layer 01
100
AcDbSpline
210
0.4816680570907304
220
-0.6196756742728318
230
-0.6196756744402286
 70
    15
 71
     2
 72
    12
 73
     9
 74
     0
 42
0.0000000001
 43
0.0000000001
 40
-7.461282552275758
 40
-7.461282552275758
 40
-7.461282552275758
 40
-5.595961914206819
 40
-5.595961914206819
 40
-3.730641276137879
 40
-3.730641276137879
 40
-1.86532063806894
 40
-1.86532063806894
 40
0.0
 40
0.0
 40
0.0
 10
-16.21761905445812
 20
-13.39627752670941
 30
4.041222473251039
 41
1.0
 10
-16.21761905445812
 20
-12.55658822394088
 30
3.201533170709342
 41
0.7071067811865476
 10
-17.2583454951859
 20
-12.96106164722706
 30
2.797059747423172
 41
1.0
 10
-18.29907193591369
 20
-13.36553507051322
 30
2.392586324137
 41
0.7071067811865476
 10
-18.29907193591369
 20
-14.20522437328175
 30
3.232275626678697
 41
1.0
 10
-18.29907193591369
 20
-15.04491367605027
 30
4.071964929220392
 41
0.7071067811865476
 10
-17.2583454951859
 20
-14.6404402527641
 30
4.476438352506563
 41
1.0
 10
-16.21761905445812
 20
-14.23596682947793
 30
4.880911775792732
 41
0.7071067811865476
 10
-16.21761905445812
 20
-13.39627752670941
 30
4.041222473251039
 41
1.0
  0
SPLINE
  5
95
330
1F
100
AcDbEntity
  8
Layer 01
100
AcDbSpline
210
-0.7333383561221628
220
0.4807363390883008
230
0.4807363390883015
 70
    15
 71
     2
 72
    12
 73
     9
 74
     0
 42
0.0000000001
 43
0.0000000001
 40
-7.461282552275758
 40
-7.461282552275758
 40
-7.461282552275758
 40
-5.595961914206819
 40
-5.595961914206819
 40
-3.730641276137879
 40
-3.730641276137879
 40
-1.86532063806894
 40
-1.86532063806894
 40
0.0
 40
0.0
 40
0.0
 10
-15.27184478132178
 20
-14.25287408712449
 30
3.184625912875523
 41
1.0
 10
-15.27184478132178
 20
-13.41318478446546
 30
2.344936610216498
 41
0.7071067811865477
 10
-16.0791831039856
 20
-14.0289611573308
 30
1.729160237351164
 41
1.0
 10
-16.88652142664942
 20
-14.64473753019612
 30
1.113383864485828
 41
0.7071067811865477
 10
-16.88652142664942
 20
-15.48442683285515
 30
1.953073167144853
 41
1.0
 10
-16.88652142664942
 20
-16.32411613551417
 30
2.792762469803876
 41
0.7071067811865477
 10
-16.0791831039856
 20
-15.70833976264884
 30
3.408538842669212
 41
1.0
 10
-15.27184478132178
 20
-15.09256338978351
 30
4.024315215534545
 41
0.7071067811865477
 10
-15.27184478132178
 20
-14.25287408712449
 30
3.184625912875523
 41
1.0
  0
SPLINE
  5
96
330
1F
100
AcDbEntity
  8
Layer 01
100
AcDbSpline
210
-0.9103651083364914
220
0.2926049978433112
230
0.2926049978394149
 70
    15
 71
     2
 72
    12
 73
     9
 74
     0
 42
0.0000000001
 43
0.0000000001
 40
-7.461282552275758
 40
-7.461282552275758
 40
-7.461282552275758
 40
-5.595961914206819
 40
-5.595961914206819
 40
-3.730641276137879
 40
-3.730641276137879
 40
-1.86532063806894
 40
-1.86532063806894
 40
0.0
 40
0.0
 40
0.0
 10
-13.9925854310607
 20
-14.8550702905752
 30
2.582429709426755
 41
1.0
 10
-13.99258543106069
 20
-14.01538098792158
 30
1.742740406761944
 41
0.7071067811865477
 10
-14.48394348597288
 20
-14.77974802230603
 30
0.9783733723774914
 41
1.0
 10
-14.97530154088507
 20
-15.54411505669048
 30
0.2140063379930379
 41
0.7071067811865477
 10
-14.97530154088507
 20
-16.38380435934411
 30
1.053695640657848
 41
1.0
 10
-14.97530154088507
 20
-17.22349366199773
 30
1.893384943322658
 41
0.7071067811865477
 10
-14.48394348597288
 20
-16.45912662761328
 30
2.657751977707111
 41
1.0
 10
-13.99258543106069
 20
-15.69475959322883
 30
3.422119012091563
 41
0.7071067811865477
 10
-13.9925854310607
 20
-14.8550702905752
 30
2.582429709426755
 41
1.0
  0
SPLINE
  5
97
330
1F
100
AcDbEntity
  8
Layer 01
100
AcDbSpline
210
-0.9622414109627764
220
0.1924726825141233
230
0.192472682514124
 70
    15
 71
     2
 72
    12
 73
     9
 74
     0
 42
0.0000000001
 43
0.0000000001
 40
-7.461282552275758
 40
-7.461282552275758
 40
-7.461282552275758
 40
-5.595961914206819
 40
-5.595961914206819
 40
-3.730641276137879
 40
-3.730641276137879
 40
-1.86532063806894
 40
-1.86532063806894
 40
0.0
 40
0.0
 40
0.0
 10
-13.30995036286443
 20
-15.03182005450153
 30
2.405679945498473
 41
1.0
 10
-13.30995036286443
 20
-14.19213075184251
 30
1.565990642839449
 41
0.7071067811865476
 10
-13.63318486798682
 20
-15.00011457120348
 30
0.7580068234784768
 41
1.0
 10
-13.95641937310922
 20
-15.80809839056445
 30
-0.0499769958824949
 41
0.7071067811865476
 10
-13.95641937310921
 20
-16.64778769322347
 30
0.7897123067765299
 41
1.0
 10
-13.95641937310922
 20
-17.4874769958825
 30
1.629401609435555
 41
0.7071067811865476
 10
-13.63318486798682
 20
-16.67949317652153
 30
2.437385428796525
 41
1.0
 10
-13.30995036286443
 20
-15.87150935716056
 30
3.245369248157496
 41
0.7071067811865476
 10
-13.30995036286443
 20
-15.03182005450153
 30
2.405679945498473
 41
1.0
  0
SPLINE
  5
98
330
1F
100
AcDbEntity
  8
Layer 01
100
AcDbSpline
210
0.9924620159392216
220
-0.08665779514234254
230
-0.08665779514229434
 70
    15
 71
     2
 72
    12
 73
     9
 74
     0
 42
0.0000000001
 43
0.0000000001
 40
-7.461282552275758
 40
-7.461282552275758
 40
-7.461282552275758
 40
-5.595961914206819
 40
-5.595961914206819
 40
-3.730641276137879
 40
-3.730641276137879
 40
-1.86532063806894
 40
-1.86532063806894
 40
0.0
 40
0.0
 40
0.0
 10
-12.59952254648585
 20
-15.13397718343729
 30
2.303522816562803
 41
1.0
 10
-12.59952254648585
 20
-14.29428788077849
 30
1.463833513903536
 41
0.7071067811865476
 10
-12.74502437688296
 20
-15.1274791688883
 30
0.6306422257937278
 41
1.0
 10
-12.89052620728008
 20
-15.9606704569981
 30
-0.2025490623160808
 41
0.7071067811865476
 10
-12.89052620728008
 20
-16.8003597596569
 30
0.6371402403431868
 41
1.0
 10
-12.89052620728008
 20
-17.6400490623157
 30
1.476829543002454
 41
0.7071067811865476
 10
-12.74502437688296
 20
-16.80685777420589
 30
2.310020831112261
 41
1.0
 10
-12.59952254648585
 20
-15.97366648609608
 30
3.143212119222069
 41
0.7071067811865476
 10
-12.59952254648585
 20
-15.13397718343729
 30
2.303522816562803
 41
1.0
  0
SPLINE
  5
99
330
1F
100
AcDbEntity
  8
Layer 01
100
AcDbSpline
210
-0.9992455180427305
220
0.02746265347262341
230
0.02746265347262349
 70
    15
 71
     2
 72
    12
 73
     9
 74
     0
 42
0.0000000001
 43
0.0000000001
 40
-7.461282552275758
 40
-7.461282552275758
 40
-7.461282552275758
 40
-5.595961914206819
 40
-5.595961914206819
 40
-3.730641276137879
 40
-3.730641276137879
 40
-1.86532063806894
 40
-1.86532063806894
 40
0.0
 40
0.0
 40
0.0
 10
-12.18690814931125
 20
-15.15774323191998
 30
2.279756768080028
 41
0.9999999999999998
 10
-12.18690814931125
 20
-14.31805392926095
 30
1.440067465421004
 41
0.7071067811865475
 10
-12.23302834199844
 20
-15.15710970149141
 30
0.6010116931905459
 41
0.9999999999999998
 10
-12.27914853468562
 20
-15.99616547372186
 30
-0.2380440790399125
 41
0.7071067811865475
 10
-12.27914853468563
 20
-16.83585477638089
 30
0.6016452236191124
 41
0.9999999999999998
 10
-12.27914853468562
 20
-17.67554407903992
 30
1.441334526278137
 41
0.7071067811865475
 10
-12.23302834199844
 20
-16.83648830680946
 30
2.280390298508595
 41
0.9999999999999998
 10
-12.18690814931125
 20
-15.997432534579
 30
3.119446070739051
 41
0.7071067811865475
 10
-12.18690814931125
 20
-15.15774323191998
 30
2.279756768080028
 41
0.9999999999999998
  0
SPLINE
  5
9A
330
1F
100
AcDbEntity
  8
Layer 01
100
AcDbSpline
210
-0.9999467092909994
220
0.007299951304679319
230
0.007299951304680573
 70
    15
 71
     2
 72
    12
 73
     9
 74
     0
 42
0.0000000001
 43
0.0000000001
 40
-7.461282552275758
 40
-7.461282552275758
 40
-7.461282552275758
 40
-5.595961914206819
 40
-5.595961914206819
 40
-3.730641276137879
 40
-3.730641276137879
 40
-1.86532063806894
 40
-1.86532063806894
 40
0.0
 40
0.0
 40
0.0
 10
-11.70680133669373
 20
-15.16095744152639
 30
2.276542558473604
 41
0.9999999999999997
 10
-11.70680133669373
 20
-14.32126813886728
 30
1.436853255814652
 41
0.7071067811865476
 10
-11.71906370273758
 20
-15.16111706811978
 30
0.5970043265621543
 41
0.9999999999999997
 10
-11.73132606878141
 20
-16.00096599737227
 30
-0.2428446026903441
 41
0.7071067811865476
 10
-11.73132606878142
 20
-16.84065530003137
 30
0.5968446999686081
 41
0.9999999999999997
 10
-11.73132606878141
 20
-17.68034460269046
 30
1.436534002627559
 41
0.7071067811865476
 10
-11.71906370273758
 20
-16.84049567343797
 30
2.276382931880057
 41
0.9999999999999997
 10
-11.70680133669373
 20
-16.00064674418546
 30
3.116231861132553
 41
0.7071067811865476
 10
-11.70680133669373
 20
-15.16095744152639
 30
2.276542558473604
 41
0.9999999999999997
  0
SPLINE
  5
9B
330
1F
100
AcDbEntity
  8
Layer 01
100
AcDbSpline
210
-0.9999983343016287
220
-0.001290618837636326
230
-0.001290618837636291
 70
    15
 71
     2
 72
    12
 73
     9
 74
     0
 42
0.0000000001
 43
0.0000000001
 40
-7.461282552275758
 40
-7.461282552275758
 40
-7.461282552275758
 40
-5.595961914206819
 40
-5.595961914206819
 40
-3.730641276137879
 40
-3.730641276137879
 40
-1.86532063806894
 40
-1.86532063806894
 40
0.0
 40
0.0
 40
0.0
 10
-9.377042894617226
 20
-15.16019640842835
 30
2.277303591571666
 41
0.9999999999999998
 10
-9.37704289461723
 20
-14.32050710576933
 30
1.437614288912628
 41
0.7071067811865477
 10
-9.374875526155806
 20
-15.16016820013611
 30
0.5979531945458447
 41
0.9999999999999998
 10
-9.372708157694385
 20
-15.99982929450289
 30
-0.241707899820939
 41
0.7071067811865477
 10
-9.372708157694383
 20
-16.83951859716191
 30
0.5979814028380986
 41
0.9999999999999998
 10
-9.372708157694385
 20
-17.67920789982091
 30
1.437670705497135
 41
0.7071067811865477
 10
-9.374875526155805
 20
-16.83954680545414
 30
2.277331799863919
 41
0.9999999999999998
 10
-9.37704289461723
 20
-15.99988571108736
 30
3.116992894230701
 41
0.7071067811865477
 10
-9.377042894617226
 20
-15.16019640842835
 30
2.277303591571666
 41
0.9999999999999998
  0
SPLINE
  5
9C
330
1F
100
AcDbEntity
  8
Layer 01
100
AcDbSpline
210
-1.0
220
-3.173239495445091E-15
230
-5.288732492408506E-16
 70
    15
 71
     2
 72
    12
 73
     9
 74
     0
 42
0.0000000001
 43
0.0000000001
 40
-7.461282552275758
 40
-7.461282552275758
 40
-7.461282552275758
 40
-5.595961914206819
 40
-5.595961914206819
 40
-3.730641276137879
 40
-3.730641276137879
 40
-1.86532063806894
 40
-1.86532063806894
 40
0.0
 40
0.0
 40
0.0
 10
-4.68760299891496
 20
-15.16031069734101
 30
2.277189302658993
 41
1.0
 10
-4.68760299891496
 20
-14.32062139468198
 30
1.437499999999969
 41
0.7071067811865476
 10
-4.687602998914953
 20
-15.16031069734101
 30
0.5978106973409426
 41
1.0
 10
-4.687602998914953
 20
-16.00000000000004
 30
-0.2418786053180843
 41
0.7071067811865476
 10
-4.687602998914958
 20
-16.83968930265906
 30
0.5978106973409407
 41
1.0
 10
-4.687602998914954
 20
-17.67937860531808
 30
1.437499999999965
 41
0.7071067811865476
 10
-4.687602998914953
 20
-16.83968930265906
 30
2.277189302658991
 41
1.0
 10
-4.687602998914955
 20
-16.00000000000004
 30
3.116878605318016
 41
0.7071067811865476
 10
-4.68760299891496
 20
-15.16031069734101
 30
2.277189302658993
 41
1.0
  0
SPLINE
  5
9D
330
1F
100
AcDbEntity
  8
Layer 01
100
AcDbSpline
210
-1.0
220
-1.449133211089672E-15
230
-9.816708849317186E-16
 70
    15
 71
     2
 72
    12
 73
     9
 74
     0
 42
0.0000000001
 43
0.0000000001
 40
-7.461282552275758
 40
-7.461282552275758
 40
-7.461282552275758
 40
-5.595961914206819
 40
-5.595961914206819
 40
-3.730641276137879
 40
-3.730641276137879
 40
-1.86532063806894
 40
-1.86532063806894
 40
0.0
 40
0.0
 40
0.0
 10
-0.000000000000004
 20
-15.160310697341
 30
2.277189302658997
 41
0.9999999999999999
 10
-0.0000000000000013
 20
-14.32062139468197
 30
1.437499999999973
 41
0.7071067811865477
 10
-0.0000000000000004
 20
-15.160310697341
 30
0.5978106973409464
 41
0.9999999999999999
 10
0.0000000000000028
 20
-16.00000000000002
 30
-0.2418786053180804
 41
0.7071067811865477
 10
0.000000000000002
 20
-16.83968930265905
 30
0.5978106973409445
 41
0.9999999999999999
 10
0.0000000000000013
 20
-17.67937860531807
 30
1.437499999999969
 41
0.7071067811865477
 10
-0.0000000000000004
 20
-16.83968930265905
 30
2.277189302658995
 41
0.9999999999999999
 10
-0.0000000000000005
 20
-16.00000000000003
 30
3.11687860531802
 41
0.7071067811865477
 10
-0.000000000000004
 20
-15.160310697341
 30
2.277189302658997
 41
0.9999999999999999
  0
SPLINE
  5
9E
330
1F
100
AcDbEntity
  8
Layer 01
100
AcDbSpline
210
-1.0
220
-2.644366246204238E-16
230
-2.644366246204252E-16
 70
    15
 71
     2
 72
    12
 73
     9
 74
     0
 42
0.0000000001
 43
0.0000000001
 40
-7.461282552275758
 40
-7.461282552275758
 40
-7.461282552275758
 40
-5.595961914206819
 40
-5.595961914206819
 40
-3.730641276137879
 40
-3.730641276137879
 40
-1.86532063806894
 40
-1.86532063806894
 40
0.0
 40
0.0
 40
0.0
 10
4.687456939185709
 20
-15.160310697341
 30
2.277189302659001
 41
0.9999999999999998
 10
4.687456939185707
 20
-14.32062139468196
 30
1.437499999999978
 41
0.7071067811865475
 10
4.687456939185706
 20
-15.160310697341
 30
0.5978106973409506
 41
0.9999999999999998
 10
4.687456939185708
 20
-16.00000000000002
 30
-0.2418786053180765
 41
0.7071067811865475
 10
4.687456939185714
 20
-16.83968930265905
 30
0.5978106973409487
 41
0.9999999999999998
 10
4.687456939185713
 20
-17.67937860531806
 30
1.437499999999973
 41
0.7071067811865475
 10
4.687456939185706
 20
-16.83968930265905
 30
2.277189302658999
 41
0.9999999999999998
 10
4.687456939185707
 20
-16.00000000000002
 30
3.116878605318025
 41
0.7071067811865475
 10
4.687456939185709
 20
-15.160310697341
 30
2.277189302659001
 41
0.9999999999999998
  0
SPLINE
  5
9F
330
1F
100
AcDbEntity
  8
Layer 01
100
AcDbSpline
210
-0.9999998915584911
220
0.0003293045749355637
230
0.0003293045749355543
 70
    15
 71
     2
 72
    12
 73
     9
 74
     0
 42
0.0000000001
 43
0.0000000001
 40
-7.461282552275758
 40
-7.461282552275758
 40
-7.461282552275758
 40
-5.595961914206819
 40
-5.595961914206819
 40
-3.730641276137879
 40
-3.730641276137879
 40
-1.86532063806894
 40
-1.86532063806894
 40
0.0
 40
0.0
 40
0.0
 10
9.37574940257574
 20
-15.16032639106222
 30
2.277173608937772
 41
1.0
 10
9.375749402575735
 20
-14.32063708840321
 30
1.437484306278735
 41
0.7071067811865477
 10
9.375196372907379
 20
-15.1603302637767
 30
0.5977911309052448
 41
1.0
 10
9.374643343239022
 20
-16.00002343915019
 30
-0.2419020444682453
 41
0.7071067811865477
 10
9.374643343239022
 20
-16.8397127418092
 30
0.597787258190793
 41
1.0
 10
9.374643343239022
 20
-17.67940204446821
 30
1.437476560849831
 41
0.7071067811865477
 10
9.375196372907379
 20
-16.83970886909473
 30
2.277169736223321
 41
1.0
 10
9.375749402575735
 20
-16.00001569372123
 30
3.11686291159681
 41
0.7071067811865477
 10
9.37574940257574
 20
-15.16032639106222
 30
2.277173608937772
 41
1.0
  0
SPLINE
  5
A0
330
1F
100
AcDbEntity
  8
Layer 01
100
AcDbSpline
210
-1.0
220
0.0
230
0.0
 70
    15
 71
     2
 72
    12
 73
     9
 74
     0
 42
0.0000000001
 43
0.0000000001
 40
-7.461282552275758
 40
-7.461282552275758
 40
-7.461282552275758
 40
-5.595961914206819
 40
-5.595961914206819
 40
-3.730641276137879
 40
-3.730641276137879
 40
-1.86532063806894
 40
-1.86532063806894
 40
0.0
 40
0.0
 40
0.0
 10
10.54693343423766
 20
-15.16031069734099
 30
2.277189302659005
 41
1.0
 10
10.54693343423766
 20
-14.32062139468196
 30
1.437499999999982
 41
0.7071067811865477
 10
10.54693343423766
 20
-15.16031069734098
 30
0.5978106973409546
 41
1.0
 10
10.54693343423766
 20
-16.00000000000001
 30
-0.2418786053180722
 41
0.7071067811865477
 10
10.54693343423766
 20
-16.83968930265904
 30
0.5978106973409527
 41
1.0
 10
10.54693343423766
 20
-17.67937860531806
 30
1.437499999999977
 41
0.7071067811865477
 10
10.54693343423766
 20
-16.83968930265904
 30
2.277189302659003
 41
1.0
 10
10.54693343423766
 20
-16.00000000000001
 30
3.11687860531803
 41
0.7071067811865477
 10
10.54693343423766
 20
-15.16031069734099
 30
2.277189302659005
 41
1.0
  0
SPLINE
  5
A1
330
1F
100
AcDbEntity
  8
Layer 01
100
AcDbSpline
210
-0.9999929549285052
220
0.002654250681134509
230
0.002654250681133845
 70
    15
 71
     2
 72
    12
 73
     9
 74
     0
 42
0.0000000001
 43
0.0000000001
 40
-7.461282552275758
 40
-7.461282552275758
 40
-7.461282552275758
 40
-5.595961914206819
 40
-5.595961914206819
 40
-3.730641276137879
 40
-3.730641276137879
 40
-1.86532063806894
 40
-1.86532063806894
 40
0.0
 40
0.0
 40
0.0
 10
11.72301105900131
 20
-15.16043561429385
 30
2.277064385706177
 41
1.0
 10
11.72301105900132
 20
-14.32074631163492
 30
1.437375083047043
 41
0.7071067811865475
 10
11.71855337215289
 20
-15.16046643968856
 30
0.5976549549934116
 41
1.0
 10
11.71409568530448
 20
-16.00018656774219
 30
-0.2420651730602191
 41
0.7071067811865475
 10
11.71409568530448
 20
-16.83987587040111
 30
0.5976241295989178
 41
1.0
 10
11.71409568530448
 20
-17.67956517306003
 30
1.437313432258055
 41
0.7071067811865475
 10
11.71855337215289
 20
-16.8398450450064
 30
2.277033560311684
 41
1.0
 10
11.72301105900132
 20
-16.00012491695277
 30
3.116753688365314
 41
0.7071067811865475
 10
11.72301105900131
 20
-15.16043561429385
 30
2.277064385706177
 41
1.0
  0
SPLINE
  5
A2
330
1F
100
AcDbEntity
  8
Layer 01
100
AcDbSpline
210
-1.0
220
5.288732492408491E-16
230
5.288732492408491E-16
 70
    15
 71
     2
 72
    12
 73
     9
 74
     0
 42
0.0000000001
 43
0.0000000001
 40
-7.461282552275758
 40
-7.461282552275758
 40
-7.461282552275758
 40
-5.595961914206819
 40
-5.595961914206819
 40
-3.730641276137879
 40
-3.730641276137879
 40
-1.86532063806894
 40
-1.86532063806894
 40
0.0
 40
0.0
 40
0.0
 10
11.975696150115
 20
-15.16031069734099
 30
2.277189302659008
 41
1.0
 10
11.975696150115
 20
-14.32062139468195
 30
1.437499999999984
 41
0.7071067811865476
 10
11.975696150115
 20
-15.16031069734098
 30
0.5978106973409568
 41
1.0
 10
11.975696150115
 20
-16.00000000000001
 30
-0.2418786053180703
 41
0.7071067811865476
 10
11.97569615011501
 20
-16.83968930265904
 30
0.5978106973409548
 41
1.0
 10
11.975696150115
 20
-17.67937860531806
 30
1.437499999999979
 41
0.7071067811865476
 10
11.975696150115
 20
-16.83968930265903
 30
2.277189302659005
 41
1.0
 10
11.975696150115
 20
-16.00000000000001
 30
3.116878605318032
 41
0.7071067811865476
 10
11.975696150115
 20
-15.16031069734099
 30
2.277189302659008
 41
1.0
  0
SPLINE
  5
A3
330
1F
100
AcDbEntity
  8
Layer 01
100
AcDbSpline
210
-0.9992465665678245
220
-0.02744357121817448
230
-0.02744357121817459
 70
    15
 71
     2
 72
    12
 73
     9
 74
     0
 42
0.0000000001
 43
0.0000000001
 40
-7.461282552275758
 40
-7.461282552275758
 40
-7.461282552275758
 40
-5.595961914206819
 40
-5.595961914206819
 40
-3.730641276137879
 40
-3.730641276137879
 40
-1.86532063806894
 40
-1.86532063806894
 40
0.0
 40
0.0
 40
0.0
 10
12.18677827734284
 20
-15.15774679999986
 30
2.279753200000127
 41
0.9999999999999999
 10
12.18677827734285
 20
-14.31805749734083
 30
1.440063897341104
 41
0.7071067811865475
 10
12.23286642370017
 20
-15.1571141500066
 30
0.6010072446753401
 41
0.9999999999999999
 10
12.2789545700575
 20
-15.99617080267236
 30
-0.2380494079904234
 41
0.7071067811865475
 10
12.27895457005749
 20
-16.83586010533138
 30
0.6016398946686016
 41
0.9999999999999999
 10
12.2789545700575
 20
-17.67554940799041
 30
1.441329197327626
 41
0.7071067811865475
 10
12.23286642370017
 20
-16.83649275532465
 30
2.280385849993388
 41
0.9999999999999999
 10
12.18677827734285
 20
-15.99743610265889
 30
3.119442502659152
 41
0.7071067811865475
 10
12.18677827734284
 20
-15.15774679999986
 30
2.279753200000127
 41
0.9999999999999999
  0
SPLINE
  5
A4
330
1F
100
AcDbEntity
  8
Layer 01
100
AcDbSpline
210
-0.9966696276586211
220
-0.05766130983088066
230
-0.05766130983088079
 70
    15
 71
     2
 72
    12
 73
     9
 74
     0
 42
0.0000000001
 43
0.0000000001
 40
-7.461282552275758
 40
-7.461282552275758
 40
-7.461282552275758
 40
-5.595961914206819
 40
-5.595961914206819
 40
-3.730641276137879
 40
-3.730641276137879
 40
-1.86532063806894
 40
-1.86532063806894
 40
0.0
 40
0.0
 40
0.0
 10
12.39243726823757
 20
-15.14897760217112
 30
2.28852239782887
 41
1.0
 10
12.39243726823756
 20
-14.3092882995121
 30
1.448833095169847
 41
0.7071067811865477
 10
12.48927243832216
 20
-15.14618112414219
 30
0.6119402705397472
 41
1.0
 10
12.58610760840676
 20
-15.98307394877229
 30
-0.2249525540903525
 41
0.7071067811865477
 10
12.58610760840676
 20
-16.82276325143132
 30
0.6147367485686724
 41
1.0
 10
12.58610760840676
 20
-17.66245255409034
 30
1.454426051227697
 41
0.7071067811865477
 10
12.48927243832216
 20
-16.82555972946025
 30
2.291318875857796
 41
1.0
 10
12.39243726823756
 20
-15.98866690483015
 30
3.128211700487894
 41
0.7071067811865477
 10
12.39243726823757
 20
-15.14897760217112
 30
2.28852239782887
 41
1.0
  0
SPLINE
  5
A5
330
1F
100
AcDbEntity
  8
Layer 01
100
AcDbSpline
210
-0.9922734522895525
220
-0.0877308266261472
230
-0.08773082662819338
 70
    15
 71
     2
 72
    12
 73
     9
 74
     0
 42
0.0000000001
 43
0.0000000001
 40
-7.461282552275758
 40
-7.461282552275758
 40
-7.461282552275758
 40
-5.595961914206819
 40
-5.595961914206819
 40
-3.730641276137879
 40
-3.730641276137879
 40
-1.86532063806894
 40
-1.86532063806894
 40
0.0
 40
0.0
 40
0.0
 10
12.59770068643764
 20
-15.13396245964653
 30
2.303537540350024
 41
1.0
 10
12.59770068643764
 20
-14.29427315697805
 30
1.463848237701135
 41
0.7071067811865476
 10
12.74503152469024
 20
-15.12746078966101
 30
0.6306606050181787
 41
1.0
 10
12.89236236294284
 20
-15.96064842234397
 30
-0.2025270276647777
 41
0.7071067811865476
 10
12.89236236294284
 20
-16.80033772501244
 30
0.6371622749841129
 41
1.0
 10
12.89236236294284
 20
-17.64002702768092
 30
1.476851577633004
 41
0.7071067811865476
 10
12.74503152469024
 20
-16.80683939499797
 30
2.310039210315958
 41
1.0
 10
12.59770068643764
 20
-15.97365176231502
 30
3.143226842998914
 41
0.7071067811865476
 10
12.59770068643764
 20
-15.13396245964653
 30
2.303537540350024
 41
1.0
  0
SPLINE
  5
A6
330
1F
100
AcDbEntity
  8
Layer 01
100
AcDbSpline
210
-0.9622443696899677
220
-0.1924652864803891
230
-0.1924652864803899
 70
    15
 71
     2
 72
    12
 73
     9
 74
     0
 42
0.0000000001
 43
0.0000000001
 40
-7.461282552275758
 40
-7.461282552275758
 40
-7.461282552275758
 40
-5.595961914206819
 40
-5.595961914206819
 40
-3.730641276137879
 40
-3.730641276137879
 40
-1.86532063806894
 40
-1.86532063806894
 40
0.0
 40
0.0
 40
0.0
 10
13.30990002617796
 20
-15.03183012290629
 30
2.4056698770937
 41
1.0
 10
13.30990002617796
 20
-14.19214082024726
 30
1.565980574434676
 41
0.7071067811865476
 10
13.63312211055954
 20
-15.0001271240198
 30
0.7579942706621324
 41
1.0
 10
13.95634419494111
 20
-15.80811342779235
 30
-0.0499920331104115
 41
0.7071067811865476
 10
13.95634419494112
 20
-16.64780273045137
 30
0.7896972695486132
 41
1.0
 10
13.95634419494112
 20
-17.48749203311039
 30
1.629386572207637
 41
0.7071067811865476
 10
13.63312211055954
 20
-16.67950572933786
 30
2.437372875980181
 41
1.0
 10
13.30990002617796
 20
-15.87151942556532
 30
3.245359179752724
 41
0.7071067811865476
 10
13.30990002617796
 20
-15.03183012290629
 30
2.4056698770937
 41
1.0
  0
SPLINE
  5
A7
330
1F
100
AcDbEntity
  8
Layer 01
100
AcDbSpline
210
-0.9102796300740832
220
-0.2927379331337004
230
-0.2927379332727472
 70
    15
 71
     2
 72
    12
 73
     9
 74
     0
 42
0.0000000001
 43
0.0000000001
 40
-7.461282552275758
 40
-7.461282552275758
 40
-7.461282552275758
 40
-5.595961914206819
 40
-5.595961914206819
 40
-3.730641276137879
 40
-3.730641276137879
 40
-1.86532063806894
 40
-1.86532063806894
 40
0.0
 40
0.0
 40
0.0
 10
13.99240320332064
 20
-14.8550329789613
 30
2.582467020968763
 41
1.0
 10
13.99240320332063
 20
-14.01534367610977
 30
1.742777718516081
 41
0.7071067811865476
 10
14.48402473939609
 20
-14.7797015184611
 30
0.9784198761647439
 41
1.0
 10
14.97564627547153
 20
-15.54405936081244
 30
0.2140620338134065
 41
0.7071067811865476
 10
14.97564627547153
 20
-16.38374866366397
 30
1.053751336266089
 41
1.0
 10
14.97564627547153
 20
-17.22343796651549
 30
1.893440638718771
 41
0.7071067811865476
 10
14.48402473939609
 20
-16.45908012416417
 30
2.657798481070107
 41
1.0
 10
13.99240320332063
 20
-15.69472228181283
 30
3.422156323421444
 41
0.7071067811865476
 10
13.99240320332064
 20
-14.8550329789613
 30
2.582467020968763
 41
1.0
  0
SPLINE
  5
A8
330
1F
100
AcDbEntity
  8
Layer 01
100
AcDbSpline
210
-0.7333709398078764
220
-0.4807114855322844
230
-0.4807114855322852
 70
    15
 71
     2
 72
    12
 73
     9
 74
     0
 42
0.0000000001
 43
0.0000000001
 40
-7.461282552275758
 40
-7.461282552275758
 40
-7.461282552275758
 40
-5.595961914206819
 40
-5.595961914206819
 40
-3.730641276137879
 40
-3.730641276137879
 40
-1.86532063806894
 40
-1.86532063806894
 40
0.0
 40
0.0
 40
0.0
 10
15.27167563043609
 20
-14.25298496782286
 30
3.184515032177136
 41
0.9999999999999999
 10
15.27167563043609
 20
-13.41329566516383
 30
2.344825729518112
 41
0.7071067811865476
 10
16.07897221456966
 20
-14.0290993982015
 30
1.729021996480441
 41
0.9999999999999999
 10
16.88626879870324
 20
-14.64490313123916
 30
1.113218263442771
 41
0.7071067811865476
 10
16.88626879870325
 20
-15.48459243389819
 30
1.952907566101796
 41
0.9999999999999999
 10
16.88626879870324
 20
-16.32428173655722
 30
2.792596868760819
 41
0.7071067811865476
 10
16.07897221456966
 20
-15.70847800351955
 30
3.40840060179849
 41
0.9999999999999999
 10
15.27167563043609
 20
-15.09267427048188
 30
4.024204334836159
 41
0.7071067811865476
 10
15.27167563043609
 20
-14.25298496782286
 30
3.184515032177136
 41
0.9999999999999999
  0
SPLINE
  5
A9
330
1F
100
AcDbEntity
  8
Layer 01
100
AcDbSpline
210
-0.4816849455557337
220
-0.6196691135849004
230
-0.6196691075839377
 70
    15
 71
     2
 72
    12
 73
     9
 74
     0
 42
0.0000000001
 43
0.0000000001
 40
-7.461282552275758
 40
-7.461282552275758
 40
-7.461282552275758
 40
-5.595961914206819
 40
-5.595961914206819
 40
-3.730641276137879
 40
-3.730641276137879
 40
-1.86532063806894
 40
-1.86532063806894
 40
0.0
 40
0.0
 40
0.0
 10
16.21760954333467
 20
-13.39632524183604
 30
4.041174759589631
 41
0.9999999999999999
 10
16.21760954333468
 20
-12.55663594310176
 30
3.20148545272369
 41
0.7071067811865476
 10
17.25831889003282
 20
-12.96112118888951
 30
2.797000206935935
 41
0.9999999999999999
 10
18.29902823673096
 20
-13.36560643467727
 30
2.392514961148179
 41
0.7071067811865476
 10
18.29902823673095
 20
-14.20529573341155
 30
3.232204268014121
 41
0.9999999999999999
 10
18.29902823673096
 20
-15.04498503214582
 30
4.071893574880062
 41
0.7071067811865476
 10
17.25831889003282
 20
-14.64049978635806
 30
4.476378820667817
 41
0.9999999999999999
 10
16.21760954333468
 20
-14.23601454057031
 30
4.880864066455572
 41
0.7071067811865476
 10
16.21760954333467
 20
-13.39632524183604
 30
4.041174759589631
 41
0.9999999999999999
  0
SPLINE
  5
AA
330
1F
100
AcDbEntity
  8
Layer 01
100
AcDbSpline
210
-0.3416670603555618
220
-0.6645538427651992
230
-0.6645538427652014
 70
    15
 71
     2
 72
    12
 73
     9
 74
     0
 42
0.0000000001
 43
0.0000000001
 40
-7.461282552275758
 40
-7.461282552275758
 40
-7.461282552275758
 40
-5.595961914206819
 40
-5.595961914206819
 40
-3.730641276137879
 40
-3.730641276137879
 40
-1.86532063806894
 40
-1.86532063806894
 40
0.0
 40
0.0
 40
0.0
 10
16.52288883857246
 20
-12.92003570894216
 30
4.51746429105784
 41
1.0
 10
16.52288883857245
 20
-12.08034640628312
 30
3.677774988398816
 41
0.7071067811865475
 10
17.63892634419422
 20
-12.36724058193465
 30
3.390880812747294
 41
1.0
 10
18.754963849816
 20
-12.65413475758617
 30
3.103986637095772
 41
0.7071067811865475
 10
18.754963849816
 20
-13.4938240602452
 30
3.943675939754795
 41
1.0
 10
18.754963849816
 20
-14.33351336290422
 30
4.78336524241382
 41
0.7071067811865475
 10
17.63892634419422
 20
-14.0466191872527
 30
5.070259418065341
 41
1.0
 10
16.52288883857246
 20
-13.75972501160117
 30
5.357153593716864
 41
0.7071067811865475
 10
16.52288883857246
 20
-12.92003570894216
 30
4.51746429105784
 41
1.0
  0
SPLINE
  5
AB
330
1F
100
AcDbEntity
  8
Layer 01
100
AcDbSpline
210
-0.1942018476750258
220
-0.6936446267874389
230
-0.693644558897798
 70
    15
 71
     2
 72
    12
 73
     9
 74
     0
 42
0.0000000001
 43
0.0000000001
 40
-7.461282552275758
 40
-7.461282552275758
 40
-7.461282552275758
 40
-5.595961914206819
 40
-5.595961914206819
 40
-3.730641276137879
 40
-3.730641276137879
 40
-1.86532063806894
 40
-1.86532063806894
 40
0.0
 40
0.0
 40
0.0
 10
16.72147445955236
 20
-12.4156366860235
 30
5.021863328385261
 41
1.0
 10
16.72147445955235
 20
-11.5759474230304
 30
4.182173983208572
 41
0.7071067811865476
 10
17.88651363608331
 20
-11.73903725536724
 30
4.019084150871741
 41
1.0
 10
19.05155281261427
 20
-11.90212708770406
 30
3.855994318534909
 41
0.7071067811865476
 10
19.05155281261426
 20
-12.74181635069716
 30
4.695683663711599
 41
1.0
 10
19.05155281261427
 20
-13.58150561369025
 30
5.535373008888286
 41
0.7071067811865476
 10
17.88651363608331
 20
-13.41841578135342
 30
5.698462841225119
 41
1.0
 10
16.72147445955235
 20
-13.25532594901659
 30
5.86155267356195
 41
0.7071067811865476
 10
16.72147445955236
 20
-12.4156366860235
 30
5.021863328385261
 41
1.0
  0
SPLINE
  5
AC
330
1F
100
AcDbEntity
  8
Layer 01
100
AcDbSpline
210
-0.1222428771035458
220
-0.7018036331472806
230
-0.701803633147282
 70
    15
 71
     2
 72
    12
 73
     9
 74
     0
 42
0.0000000001
 43
0.0000000001
 40
-7.461282552275758
 40
-7.461282552275758
 40
-7.461282552275758
 40
-5.595961914206819
 40
-5.595961914206819
 40
-3.730641276137879
 40
-3.730641276137879
 40
-1.86532063806894
 40
-1.86532063806894
 40
0.0
 40
0.0
 40
0.0
 10
16.77640729007557
 20
-12.17334588076064
 30
5.264154119239352
 41
0.9999999999999999
 10
16.77640729007557
 20
-11.33365657810162
 30
4.424464816580328
 41
0.7071067811865475
 10
17.95500129671759
 20
-11.43630261433173
 30
4.321818780350218
 41
0.9999999999999999
 10
19.13359530335961
 20
-11.53894865056183
 30
4.219172744120108
 41
0.7071067811865475
 10
19.13359530335961
 20
-12.37863795322086
 30
5.058862046779131
 41
0.9999999999999999
 10
19.13359530335961
 20
-13.21832725587988
 30
5.898551349438156
 41
0.7071067811865475
 10
17.95500129671759
 20
-13.11568121964977
 30
6.001197385668267
 41
0.9999999999999999
 10
16.77640729007557
 20
-13.01303518341967
 30
6.103843421898378
 41
0.7071067811865475
 10
16.77640729007557
 20
-12.17334588076064
 30
5.264154119239352
 41
0.9999999999999999
  0
SPLINE
  5
AD
330
1F
100
AcDbEntity
  8
Layer 01
100
AcDbSpline
210
0.04478647196002935
220
0.7063969665870069
230
0.7063975492072779
 70
    15
 71
     2
 72
    12
 73
     9
 74
     0
 42
0.0000000001
 43
0.0000000001
 40
-7.461282552275758
 40
-7.461282552275758
 40
-7.461282552275758
 40
-5.595961914206819
 40
-5.595961914206819
 40
-3.730641276137879
 40
-3.730641276137879
 40
-1.86532063806894
 40
-1.86532063806894
 40
0.0
 40
0.0
 40
0.0
 10
16.80629584720643
 20
-11.93284943585032
 30
5.504650442727854
 41
1.0
 10
16.80629584720644
 20
-11.09315979892875
 30
4.664961498362763
 41
0.7071067811865476
 10
17.99226495036604
 20
-11.13075576309078
 30
4.627365534200729
 41
1.0
 10
19.17823405352564
 20
-11.16835172725281
 30
4.589769570038696
 41
0.7071067811865476
 10
19.17823405352565
 20
-12.00804136417439
 30
5.429458514403787
 41
1.0
 10
19.17823405352564
 20
-12.84773100109596
 30
6.269147458768876
 41
0.7071067811865476
 10
17.99226495036604
 20
-12.81013503693393
 30
6.306743422930911
 41
1.0
 10
16.80629584720644
 20
-12.77253907277189
 30
6.344339387092943
 41
0.7071067811865476
 10
16.80629584720643
 20
-11.93284943585032
 30
5.504650442727854
 41
1.0
  0
SPLINE
  5
AE
330
1F
100
AcDbEntity
  8
Layer 01
100
AcDbSpline
210
2.644366246204253E-16
220
-0.7071067811865479
230
-0.7071067811865471
 70
    15
 71
     2
 72
    12
 73
     9
 74
     0
 42
0.0000000001
 43
0.0000000001
 40
-7.461282552275758
 40
-7.461282552275758
 40
-7.461282552275758
 40
-5.595961914206819
 40
-5.595961914206819
 40
-3.730641276137879
 40
-3.730641276137879
 40
-1.86532063806894
 40
-1.86532063806894
 40
0.0
 40
0.0
 40
0.0
 10
16.8125
 20
-11.39434785854028
 30
6.043152141459716
 41
1.0
 10
16.81249999999999
 20
-10.55465855588126
 30
5.20346283880069
 41
0.7071067811865476
 10
18.0
 20
-10.55465855588126
 30
5.20346283880069
 41
1.0
 10
19.1875
 20
-10.55465855588126
 30
5.203462838800689
 41
0.7071067811865476
 10
19.1875
 20
-11.39434785854028
 30
6.043152141459715
 41
1.0
 10
19.1875
 20
-12.23403716119931
 30
6.882841444118741
 41
0.7071067811865476
 10
18.0
 20
-12.23403716119931
 30
6.88284144411874
 41
1.0
 10
16.8125
 20
-12.23403716119931
 30
6.882841444118738
 41
0.7071067811865476
 10
16.8125
 20
-11.39434785854028
 30
6.043152141459716
 41
1.0
  0
SPLINE
  5
AF
330
1F
100
AcDbEntity
  8
Layer 01
100
AcDbSpline
210
0.001526037018159542
220
-0.7070914727208568
230
-0.7071204426520767
 70
    15
 71
     2
 72
    12
 73
     9
 74
     0
 42
0.0000000001
 43
0.0000000001
 40
-7.461282552275758
 40
-7.461282552275758
 40
-7.461282552275758
 40
-5.595961914206819
 40
-5.595961914206819
 40
-3.730641276137879
 40
-3.730641276137879
 40
-1.86532063806894
 40
-1.86532063806894
 40
0.0
 40
0.0
 40
0.0
 10
16.81129374796884
 20
-10.81936752580576
 30
6.618126442729116
 41
0.9999999999999999
 10
16.81129374796883
 20
-9.979661619105578
 30
5.77845493783787
 41
0.7071067811865476
 10
17.99849610051078
 20
-9.978380541836795
 30
5.779736015106653
 41
0.9999999999999999
 10
19.18569845305272
 20
-9.977099464568015
 30
5.781017092375436
 41
0.7071067811865476
 10
19.18569845305272
 20
-10.81680537126819
 30
6.620688597266682
 41
0.9999999999999999
 10
19.18569845305272
 20
-11.65651127796838
 30
7.460360102157927
 41
0.7071067811865476
 10
17.99849610051078
 20
-11.65779235523716
 30
7.459079024889144
 41
0.9999999999999999
 10
16.81129374796884
 20
-11.65907343250594
 30
7.457797947620359
 41
0.7071067811865476
 10
16.81129374796884
 20
-10.81936752580576
 30
6.618126442729116
 41
0.9999999999999999
  0
SPLINE
  5
B0
330
1F
100
AcDbEntity
  8
Layer 01
100
AcDbSpline
210
-1.322176440354752E-15
220
0.7071067811865474
230
0.7071067811865477
 70
    15
 71
     2
 72
    12
 73
     9
 74
     0
 42
0.0000000001
 43
0.0000000001
 40
-7.461282552275758
 40
-7.461282552275758
 40
-7.461282552275758
 40
-5.595961914206819
 40
-5.595961914206819
 40
-3.730641276137879
 40
-3.730641276137879
 40
-1.86532063806894
 40
-1.86532063806894
 40
0.0
 40
0.0
 40
0.0
 10
16.8125
 20
-3.543620685728824
 30
13.89387931427117
 41
0.9999999999999999
 10
16.8125
 20
-2.703931383069798
 30
13.05419001161214
 41
0.7071067811865477
 10
18.00000000000001
 20
-2.703931383069797
 30
13.05419001161215
 41
0.9999999999999999
 10
19.18749999999999
 20
-2.703931383069794
 30
13.05419001161214
 41
0.7071067811865477
 10
19.1875
 20
-3.543620685728821
 30
13.89387931427117
 41
0.9999999999999999
 10
19.18749999999999
 20
-4.383309988387846
 30
14.73356861693019
 41
0.7071067811865477
 10
18.00000000000001
 20
-4.383309988387847
 30
14.7335686169302
 41
0.9999999999999999
 10
16.81249999999999
 20
-4.383309988387847
 30
14.73356861693019
 41
0.7071067811865477
 10
16.8125
 20
-3.543620685728824
 30
13.89387931427117
 41
0.9999999999999999
  0
SPLINE
  5
B1
330
1F
100
AcDbEntity
  8
Layer 01
100
AcDbSpline
210
-3.110259841291862E-5
220
-0.7076138935141704
230
-0.7065993042300173
 70
    15
 71
     2
 72
    12
 73
     9
 74
     0
 42
0.0000000001
 43
0.0000000001
 40
-7.461282552275758
 40
-7.461282552275758
 40
-7.461282552275758
 40
-5.595961914206819
 40
-5.595961914206819
 40
-3.730641276137879
 40
-3.730641276137879
 40
-1.86532063806894
 40
-1.86532063806894
 40
0.0
 40
0.0
 40
0.0
 10
16.81252459123596
 20
3.730813525632072
 30
21.16852476572703
 41
0.9999999999999998
 10
16.81252459123595
 20
4.569921304704225
 30
20.32821213157535
 41
0.7071067811865476
 10
18.00003065922066
 20
4.569895188044872
 30
20.32818601491599
 41
0.9999999999999998
 10
19.18753672720536
 20
4.569869071385511
 30
20.32815989825663
 41
0.7071067811865476
 10
19.18753672720536
 20
3.730761292313362
 30
21.16847253240832
 41
0.9999999999999998
 10
19.18753672720536
 20
2.891653513241209
 30
22.00878516655999
 41
0.7071067811865476
 10
18.00003065922066
 20
2.891679629900565
 30
22.00881128321936
 41
0.9999999999999998
 10
16.81252459123596
 20
2.891705746559921
 30
22.00883739987871
 41
0.7071067811865476
 10
16.81252459123596
 20
3.730813525632072
 30
21.16852476572703
 41
0.9999999999999998
  0
SPLINE
  5
B2
330
1F
100
AcDbEntity
  8
Layer 01
100
AcDbSpline
210
0.0
220
-0.707106781186548
230
-0.7071067811865469
 70
    15
 71
     2
 72
    12
 73
     9
 74
     0
 42
0.0000000001
 43
0.0000000001
 40
-7.461282552275758
 40
-7.461282552275758
 40
-7.461282552275758
 40
-5.595961914206819
 40
-5.595961914206819
 40
-3.730641276137879
 40
-3.730641276137879
 40
-1.86532063806894
 40
-1.86532063806894
 40
0.0
 40
0.0
 40
0.0
 10
16.8125
 20
7.589668824614824
 30
25.02716882461481
 41
1.0
 10
16.81249999999999
 20
8.429358127273849
 30
24.18747952195579
 41
0.7071067811865477
 10
18.0
 20
8.42935812727385
 30
24.18747952195579
 41
1.0
 10
19.1875
 20
8.429358127273849
 30
24.18747952195579
 41
0.7071067811865477
 10
19.18749999999999
 20
7.589668824614825
 30
25.02716882461481
 41
1.0
 10
19.1875
 20
6.749979521955802
 30
25.86685812727384
 41
0.7071067811865477
 10
18.0
 20
6.7499795219558
 30
25.86685812727384
 41
1.0
 10
16.8125
 20
6.7499795219558
 30
25.86685812727384
 41
0.7071067811865477
 10
16.8125
 20
7.589668824614824
 30
25.02716882461481
 41
1.0
  0
SPLINE
  5
B3
330
1F
100
AcDbEntity
  8
Layer 01
100
AcDbSpline
210
-1.296679377624710E-6
220
-0.71903683214976
230
-0.6949719663485402
 70
    15
 71
     2
 72
    12
 73
     9
 74
     0
 42
0.0000000001
 43
0.0000000001
 40
-7.461282552275758
 40
-7.461282552275758
 40
-7.461282552275758
 40
-5.595961914206819
 40
-5.595961914206819
 40
-3.730641276137879
 40
-3.730641276137879
 40
-1.86532063806894
 40
-1.86532063806894
 40
0.0
 40
0.0
 40
0.0
 10
16.81250102536134
 20
11.44626014158747
 30
28.88877406893781
 41
1.0
 10
16.81250102536133
 20
12.27214658632959
 30
28.03428956927818
 41
0.7071067811865477
 10
18.0000012783733
 20
12.27214549736388
 30
28.03428848031248
 41
1.0
 10
19.18750153138526
 20
12.27214440839817
 30
28.03428739134677
 41
0.7071067811865477
 10
19.18750153138526
 20
11.44625796365606
 30
28.8887718910064
 41
1.0
 10
19.18750153138526
 20
10.62037151891393
 30
29.74325639066603
 41
0.7071067811865477
 10
18.0000012783733
 20
10.62037260787965
 30
29.74325747963173
 41
1.0
 10
16.81250102536134
 20
10.62037369684535
 30
29.74325856859744
 41
0.7071067811865477
 10
16.81250102536134
 20
11.44626014158747
 30
28.88877406893781
 41
1.0
  0
SPLINE
  5
B4
330
1F
100
AcDbEntity
  8
Layer 01
100
AcDbSpline
210
2.669376995647001E-15
220
-0.744797269029614
230
-0.6672908121996202
 70
    15
 71
     2
 72
    12
 73
     9
 74
     0
 42
0.0000000001
 43
0.0000000001
 40
-7.461282552275758
 40
-7.461282552275758
 40
-7.461282552275758
 40
-5.595961914206819
 40
-5.595961914206819
 40
-3.730641276137879
 40
-3.730641276137879
 40
-1.86532063806894
 40
-1.86532063806894
 40
0.0
 40
0.0
 40
0.0
 10
16.8125
 20
11.99625512680226
 30
29.42100223993909
 41
1.0
 10
16.8125
 20
12.78866296628931
 30
28.53655548296643
 41
0.7071067811865475
 10
18.0
 20
12.78866296628931
 30
28.53655548296642
 41
1.0
 10
19.1875
 20
12.78866296628932
 30
28.53655548296643
 41
0.7071067811865475
 10
19.18749999999999
 20
11.99625512680226
 30
29.42100223993909
 41
1.0
 10
19.1875
 20
11.20384728731522
 30
30.30544899691177
 41
0.7071067811865475
 10
18.0
 20
11.20384728731522
 30
30.30544899691175
 41
1.0
 10
16.81250000000001
 20
11.20384728731521
 30
30.30544899691176
 41
0.7071067811865475
 10
16.8125
 20
11.99625512680226
 30
29.42100223993909
 41
1.0
  0
SPLINE
  5
B5
330
1F
100
AcDbEntity
  8
Layer 01
100
AcDbSpline
210
-4.625183703423451E-15
220
-0.8236696238055974
230
-0.5670699699507509
 70
    15
 71
     2
 72
    12
 73
     9
 74
     0
 42
0.0000000001
 43
0.0000000001
 40
-7.461282552275758
 40
-7.461282552275758
 40
-7.461282552275758
 40
-5.595961914206819
 40
-5.595961914206819
 40
-3.730641276137879
 40
-3.730641276137879
 40
-1.86532063806894
 40
-1.86532063806894
 40
0.0
 40
0.0
 40
0.0
 10
16.8125
 20
12.59758018029545
 30
29.89423636859498
 41
1.0
 10
16.8125
 20
13.27097576961198
 30
28.91612869032584
 41
0.7071067811865476
 10
18.0
 20
13.27097576961198
 30
28.91612869032583
 41
1.0
 10
19.1875
 20
13.27097576961197
 30
28.91612869032582
 41
0.7071067811865476
 10
19.1875
 20
12.59758018029545
 30
29.89423636859497
 41
1.0
 10
19.1875
 20
11.92418459097893
 30
30.87234404686413
 41
0.7071067811865476
 10
18.0
 20
11.92418459097893
 30
30.87234404686412
 41
1.0
 10
16.8125
 20
11.92418459097894
 30
30.87234404686412
 41
0.7071067811865476
 10
16.8125
 20
12.59758018029545
 30
29.89423636859498
 41
1.0
  0
SPLINE
  5
B6
330
1F
100
AcDbEntity
  8
Layer 01
100
AcDbSpline
210
6.454324609398924E-16
220
-0.8891306668705745
230
-0.4576534247990367
 70
    15
 71
     2
 72
    12
 73
     9
 74
     0
 42
0.0000000001
 43
0.0000000001
 40
-7.461282552275758
 40
-7.461282552275758
 40
-7.461282552275758
 40
-5.595961914206819
 40
-5.595961914206819
 40
-3.730641276137879
 40
-3.730641276137879
 40
-1.86532063806894
 40
-1.86532063806894
 40
0.0
 40
0.0
 40
0.0
 10
16.81250000000001
 20
13.25407945120577
 30
30.28700262698486
 41
0.9999999999999999
 10
16.8125
 20
13.79754289315463
 30
29.23115996007606
 41
0.7071067811865476
 10
18.0
 20
13.79754289315463
 30
29.23115996007605
 41
0.9999999999999999
 10
19.1875
 20
13.79754289315463
 30
29.23115996007605
 41
0.7071067811865476
 10
19.1875
 20
13.25407945120577
 30
30.28700262698486
 41
0.9999999999999999
 10
19.1875
 20
12.71061600925692
 30
31.34284529389367
 41
0.7071067811865476
 10
18.0
 20
12.71061600925691
 30
31.34284529389366
 41
0.9999999999999999
 10
16.8125
 20
12.71061600925692
 30
31.34284529389367
 41
0.7071067811865476
 10
16.81250000000001
 20
13.25407945120577
 30
30.28700262698486
 41
0.9999999999999999
  0
SPLINE
  5
B7
330
1F
100
AcDbEntity
  8
Layer 01
100
AcDbSpline
210
3.417777446610219E-9
220
-0.940090558499228
230
-0.3409248330946421
 70
    15
 71
     2
 72
    12
 73
     9
 74
     0
 42
0.0000000001
 43
0.0000000001
 40
-7.461282552275758
 40
-7.461282552275758
 40
-7.461282552275758
 40
-5.595961914206819
 40
-5.595961914206819
 40
-3.730641276137879
 40
-3.730641276137879
 40
-1.86532063806894
 40
-1.86532063806894
 40
0.0
 40
0.0
 40
0.0
 10
16.81249999701678
 20
13.95548613780038
 30
30.59314415162837
 41
1.0
 10
16.81249999701678
 20
14.36029999109029
 30
29.47688143185785
 41
0.7071067811865476
 10
17.99999999628065
 20
14.36029999425857
 30
29.47688143502612
 41
1.0
 10
19.18749999554453
 20
14.36029999742684
 30
29.4768814381944
 41
0.7071067811865476
 10
19.18749999554454
 20
13.95548614413693
 30
30.59314415796492
 41
1.0
 10
19.18749999554453
 20
13.55067229084703
 30
31.70940687773544
 41
0.7071067811865476
 10
17.99999999628065
 20
13.55067228767875
 30
31.70940687456717
 41
1.0
 10
16.81249999701678
 20
13.55067228451047
 30
31.70940687139889
 41
0.7071067811865476
 10
16.81249999701678
 20
13.95548613780038
 30
30.59314415162837
 41
1.0
  0
SPLINE
  5
B8
330
1F
100
AcDbEntity
  8
Layer 01
100
AcDbSpline
210
7.432297705328047E-16
220
-0.9937027661690931
230
-0.1120482597271924
 70
    15
 71
     2
 72
    12
 73
     9
 74
     0
 42
0.0000000001
 43
0.0000000001
 40
-7.461282552275758
 40
-7.461282552275758
 40
-7.461282552275758
 40
-5.595961914206819
 40
-5.595961914206819
 40
-3.730641276137879
 40
-3.730641276137879
 40
-1.86532063806894
 40
-1.86532063806894
 40
0.0
 40
0.0
 40
0.0
 10
16.81250000000001
 20
15.32771044163682
 30
30.91443522277597
 41
0.9999999999999998
 10
16.8125
 20
15.46076775006287
 30
29.73441318795017
 41
0.7071067811865475
 10
18.00000000000001
 20
15.46076775006286
 30
29.73441318795017
 41
0.9999999999999998
 10
19.1875
 20
15.46076775006287
 30
29.73441318795017
 41
0.7071067811865475
 10
19.1875
 20
15.32771044163682
 30
30.91443522277597
 41
0.9999999999999998
 10
19.1875
 20
15.19465313321079
 30
32.09445725760176
 41
0.7071067811865475
 10
18.00000000000001
 20
15.19465313321079
 30
32.09445725760177
 41
0.9999999999999998
 10
16.8125
 20
15.19465313321079
 30
32.09445725760177
 41
0.7071067811865475
 10
16.81250000000001
 20
15.32771044163682
 30
30.91443522277597
 41
0.9999999999999998
  0
SPLINE
  5
B9
330
1F
100
AcDbEntity
  8
Layer 01
100
AcDbSpline
210
-1.479023673436497E-11
220
-0.9924198240222751
230
0.1228938277034149
 70
    15
 71
     2
 72
    12
 73
     9
 74
     0
 42
0.0000000001
 43
0.0000000001
 40
-7.461282552275758
 40
-7.461282552275758
 40
-7.461282552275758
 40
-5.595961914206819
 40
-5.595961914206819
 40
-3.730641276137879
 40
-3.730641276137879
 40
-1.86532063806894
 40
-1.86532063806894
 40
0.0
 40
0.0
 40
0.0
 10
16.81250000001902
 20
16.73735838897378
 30
30.90673969804531
 41
0.9999999999999998
 10
16.81250000001902
 20
16.59142178764568
 30
29.72823969592993
 41
0.7071067811865475
 10
18.00000000002371
 20
16.59142178762549
 30
29.72823969590974
 41
0.9999999999999998
 10
19.18750000002841
 20
16.59142178760528
 30
29.72823969588954
 41
0.7071067811865475
 10
19.1875000000284
 20
16.73735838893338
 30
30.90673969800492
 41
0.9999999999999998
 10
19.18750000002841
 20
16.88329499026148
 30
32.08523970012029
 41
0.7071067811865475
 10
18.00000000002371
 20
16.88329499028167
 30
32.08523970014049
 41
0.9999999999999998
 10
16.81250000001902
 20
16.88329499030187
 30
32.08523970016068
 41
0.7071067811865475
 10
16.81250000001902
 20
16.73735838897378
 30
30.90673969804531
 41
0.9999999999999998
  0
SPLINE
  5
BA
330
1F
100
AcDbEntity
  8
Layer 01
100
AcDbSpline
210
3.830641261599565E-15
220
-0.9404411276304807
230
0.3399565934955663
 70
    15
 71
     2
 72
    12
 73
     9
 74
     0
 42
0.0000000001
 43
0.0000000001
 40
-7.461282552275758
 40
-7.461282552275758
 40
-7.461282552275758
 40
-5.595961914206819
 40
-5.595961914206819
 40
-3.730641276137879
 40
-3.730641276137879
 40
-1.86532063806894
 40
-1.86532063806894
 40
0.0
 40
0.0
 40
0.0
 10
16.8125
 20
18.03973956097338
 30
30.59486539154429
 41
0.9999999999999999
 10
16.8125
 20
17.6360411061974
 30
29.4780915524831
 41
0.7071067811865475
 10
18.0
 20
17.6360411061974
 30
29.4780915524831
 41
0.9999999999999999
 10
19.1875
 20
17.63604110619741
 30
29.4780915524831
 41
0.7071067811865475
 10
19.1875
 20
18.03973956097339
 30
30.59486539154429
 41
0.9999999999999999
 10
19.1875
 20
18.44343801574938
 30
31.71163923060548
 41
0.7071067811865475
 10
18.0
 20
18.44343801574937
 30
31.71163923060548
 41
0.9999999999999999
 10
16.8125
 20
18.44343801574937
 30
31.71163923060548
 41
0.7071067811865475
 10
16.8125
 20
18.03973956097338
 30
30.59486539154429
 41
0.9999999999999999
  0
SPLINE
  5
BB
330
1F
100
AcDbEntity
  8
Layer 01
100
AcDbSpline
210
-3.264441966912583E-13
220
0.8415967062120064
230
-0.5401064562594133
 70
    15
 71
     2
 72
    12
 73
     9
 74
     0
 42
0.0000000001
 43
0.0000000001
 40
-7.461282552275758
 40
-7.461282552275758
 40
-7.461282552275758
 40
-5.595961914206819
 40
-5.595961914206819
 40
-3.730641276137879
 40
-3.730641276137879
 40
-1.86532063806894
 40
-1.86532063806894
 40
0.0
 40
0.0
 40
0.0
 10
16.81249999999877
 20
19.24063992703249
 30
30.00179764955482
 41
1.0
 10
16.81249999999878
 20
18.59926334465128
 30
29.00240130293112
 41
0.7071067811865475
 10
17.99999999999847
 20
18.59926334465257
 30
29.0024013029324
 41
1.0
 10
19.18749999999818
 20
18.59926334465387
 30
29.00240130293371
 41
0.7071067811865475
 10
19.18749999999817
 20
19.24063992703508
 30
30.0017976495574
 41
1.0
 10
19.18749999999819
 20
19.88201650941629
 30
31.00119399618114
 41
0.7071067811865475
 10
17.99999999999847
 20
19.88201650941498
 30
31.00119399617984
 41
1.0
 10
16.81249999999879
 20
19.8820165094137
 30
31.00119399617855
 41
0.7071067811865475
 10
16.81249999999877
 20
19.24063992703249
 30
30.00179764955482
 41
1.0
  0
SPLINE
  5
BC
330
1F
100
AcDbEntity
  8
Layer 01
100
AcDbSpline
210
-2.613502673740619E-15
220
-0.6934372058397907
230
0.7205170654169849
 70
    15
 71
     2
 72
    12
 73
     9
 74
     0
 42
0.0000000001
 43
0.0000000001
 40
-7.461282552275758
 40
-7.461282552275758
 40
-7.461282552275758
 40
-5.595961914206819
 40
-5.595961914206819
 40
-3.730641276137879
 40
-3.730641276137879
 40
-1.86532063806894
 40
-1.86532063806894
 40
0.0
 40
0.0
 40
0.0
 10
16.81249999999999
 20
20.32310239250189
 30
29.11284186080015
 41
1.0
 10
16.81249999999999
 20
19.46748837731921
 30
28.28938517886541
 41
0.7071067811865476
 10
17.99999999999999
 20
19.46748837731922
 30
28.28938517886541
 41
1.0
 10
19.1875
 20
19.46748837731922
 30
28.28938517886541
 41
0.7071067811865476
 10
19.18749999999999
 20
20.32310239250189
 30
29.11284186080015
 41
1.0
 10
19.18749999999999
 20
21.17871640768455
 30
29.9362985427349
 41
0.7071067811865476
 10
17.99999999999999
 20
21.17871640768456
 30
29.9362985427349
 41
1.0
 10
16.8125
 20
21.17871640768456
 30
29.9362985427349
 41
0.7071067811865476
 10
16.81249999999999
 20
20.32310239250189
 30
29.11284186080015
 41
1.0
  0
SPLINE
  5
BD
330
1F
100
AcDbEntity
  8
Layer 01
100
AcDbSpline
210
1.181578082586669E-14
220
-0.5074353876050572
230
0.8616898092736767
 70
    15
 71
     2
 72
    12
 73
     9
 74
     0
 42
0.0000000001
 43
0.0000000001
 40
-7.461282552275758
 40
-7.461282552275758
 40
-7.461282552275758
 40
-5.595961914206819
 40
-5.595961914206819
 40
-3.730641276137879
 40
-3.730641276137879
 40
-1.86532063806894
 40
-1.86532063806894
 40
0.0
 40
0.0
 40
0.0
 10
16.81250000000002
 20
21.17013308606264
 30
27.99683921871113
 41
1.0
 10
16.81250000000001
 20
20.14687757802139
 30
27.39426036753545
 41
0.7071067811865477
 10
18.00000000000003
 20
20.14687757802136
 30
27.39426036753542
 41
1.0
 10
19.18750000000004
 20
20.14687757802134
 30
27.39426036753539
 41
0.7071067811865477
 10
19.18750000000004
 20
21.1701330860626
 30
27.99683921871107
 41
1.0
 10
19.18750000000002
 20
22.19338859410385
 30
28.59941806988676
 41
0.7071067811865477
 10
18.00000000000003
 20
22.19338859410388
 30
28.59941806988678
 41
1.0
 10
16.81250000000001
 20
22.19338859410391
 30
28.59941806988682
 41
0.7071067811865477
 10
16.81250000000002
 20
21.17013308606264
 30
27.99683921871113
 41
1.0
  0
SPLINE
  5
BE
330
1F
100
AcDbEntity
  8
Layer 01
100
AcDbSpline
210
-3.793239575937718E-15
220
-0.2966536356326586
230
0.9549851414896076
 70
    15
 71
     2
 72
    12
 73
     9
 74
     0
 42
0.0000000001
 43
0.0000000001
 40
-7.461282552275758
 40
-7.461282552275758
 40
-7.461282552275758
 40
-5.595961914206819
 40
-5.595961914206819
 40
-3.730641276137879
 40
-3.730641276137879
 40
-1.86532063806894
 40
-1.86532063806894
 40
0.0
 40
0.0
 40
0.0
 10
16.8125
 20
21.72991084893762
 30
26.73214043955738
 41
0.9999999999999998
 10
16.81249999999999
 20
20.59586599341871
 30
26.3798642472436
 41
0.7071067811865475
 10
18.0
 20
20.59586599341871
 30
26.3798642472436
 41
0.9999999999999998
 10
19.1875
 20
20.59586599341871
 30
26.3798642472436
 41
0.7071067811865475
 10
19.1875
 20
21.72991084893762
 30
26.73214043955739
 41
0.9999999999999998
 10
19.1875
 20
22.86395570445653
 30
27.08441663187117
 41
0.7071067811865475
 10
18.0
 20
22.86395570445652
 30
27.08441663187117
 41
0.9999999999999998
 10
16.81249999999999
 20
22.86395570445653
 30
27.08441663187116
 41
0.7071067811865475
 10
16.8125
 20
21.72991084893762
 30
26.73214043955738
 41
0.9999999999999998
  0
SPLINE
  5
BF
330
1F
100
AcDbEntity
  8
Layer 01
100
AcDbSpline
210
5.859409491950830E-14
220
-0.06829044847245622
230
0.9976654823373569
 70
    15
 71
     2
 72
    12
 73
     9
 74
     0
 42
0.0000000001
 43
0.0000000001
 40
-7.461282552275758
 40
-7.461282552275758
 40
-7.461282552275758
 40
-5.595961914206819
 40
-5.595961914206819
 40
-3.730641276137879
 40
-3.730641276137879
 40
-1.86532063806894
 40
-1.86532063806894
 40
0.0
 40
0.0
 40
0.0
 10
16.81250000000007
 20
21.9842683657675
 30
25.37297281803714
 41
1.0
 10
16.81250000000005
 20
20.79988191450991
 30
25.29190127316262
 41
0.7071067811865476
 10
18.00000000000008
 20
20.79988191450984
 30
25.29190127316254
 41
1.0
 10
19.18750000000009
 20
20.79988191450976
 30
25.29190127316247
 41
0.7071067811865476
 10
19.18750000000009
 20
21.98426836576735
 30
25.372972818037
 41
1.0
 10
19.18750000000009
 20
23.16865481702495
 30
25.45404436291152
 41
0.7071067811865476
 10
18.00000000000008
 20
23.16865481702501
 30
25.45404436291161
 41
1.0
 10
16.81250000000005
 20
23.16865481702508
 30
25.45404436291168
 41
0.7071067811865476
 10
16.81250000000007
 20
21.9842683657675
 30
25.37297281803714
 41
1.0
  0
SPLINE
  5
C0
330
1F
100
AcDbEntity
  8
Layer 01
100
AcDbSpline
210
0.0
220
0.0
230
1.0
 70
    15
 71
     2
 72
    12
 73
     9
 74
     0
 42
0.0000000001
 43
0.0000000001
 40
-7.461282552275758
 40
-7.461282552275758
 40
-7.461282552275758
 40
-5.595961914206819
 40
-5.595961914206819
 40
-3.730641276137879
 40
-3.730641276137879
 40
-1.86532063806894
 40
-1.86532063806894
 40
0.0
 40
0.0
 40
0.0
 10
16.8125
 20
21.99999999999998
 30
24.89012825100371
 41
1.0
 10
16.81249999999999
 20
20.81249999999998
 30
24.89012825100371
 41
0.7071067811865476
 10
18.0
 20
20.81249999999998
 30
24.89012825100371
 41
1.0
 10
19.1875
 20
20.81249999999998
 30
24.89012825100371
 41
0.7071067811865476
 10
19.1875
 20
21.99999999999999
 30
24.89012825100371
 41
1.0
 10
19.1875
 20
23.18749999999998
 30
24.89012825100371
 41
0.7071067811865476
 10
18.0
 20
23.18749999999998
 30
24.89012825100371
 41
1.0
 10
16.81249999999999
 20
23.18749999999998
 30
24.89012825100371
 41
0.7071067811865476
 10
16.8125
 20
21.99999999999998
 30
24.89012825100371
 41
1.0
  0
SPLINE
  5
C1
330
1F
100
AcDbEntity
  8
Layer 01
100
AcDbSpline
210
1.495877653778492E-15
220
-0.001546978322249469
230
-0.9999988034283194
 70
    15
 71
     2
 72
    12
 73
     9
 74
     0
 42
0.0000000001
 43
0.0000000001
 40
-7.461282552275758
 40
-7.461282552275758
 40
-7.461282552275758
 40
-5.595961914206819
 40
-5.595961914206819
 40
-3.730641276137879
 40
-3.730641276137879
 40
-1.86532063806894
 40
-1.86532063806894
 40
0.0
 40
0.0
 40
0.0
 10
16.81249999999999
 20
22.00019909866398
 30
24.40698758156682
 41
1.0
 10
16.8125
 20
20.81265969388399
 30
24.40882468148107
 41
0.7071067811865476
 10
17.99999999999999
 20
20.81265969388399
 30
24.40882468148106
 41
1.0
 10
19.1875
 20
20.81265969388399
 30
24.40882468148107
 41
0.7071067811865476
 10
19.18749999999999
 20
22.00019909866398
 30
24.40698758156684
 41
1.0
 10
19.1875
 20
23.18773850344397
 30
24.4051504816526
 41
0.7071067811865476
 10
17.99999999999999
 20
23.18773850344397
 30
24.4051504816526
 41
1.0
 10
16.8125
 20
23.18773850344397
 30
24.4051504816526
 41
0.7071067811865476
 10
16.81249999999999
 20
22.00019909866398
 30
24.40698758156682
 41
1.0
  0
SPLINE
  5
C2
330
1F
100
AcDbEntity
  8
Layer 01
100
AcDbSpline
210
0.0
220
0.0
230
1.0
 70
    15
 71
     2
 72
    12
 73
     9
 74
     0
 42
0.0000000001
 43
0.0000000001
 40
-7.461282552275758
 40
-7.461282552275758
 40
-7.461282552275758
 40
-5.595961914206819
 40
-5.595961914206819
 40
-3.730641276137879
 40
-3.730641276137879
 40
-1.86532063806894
 40
-1.86532063806894
 40
0.0
 40
0.0
 40
0.0
 10
16.8125
 20
21.99999999999999
 30
23.64937021176686
 41
1.0
 10
16.81250000000001
 20
20.81249999999999
 30
23.64937021176686
 41
0.7071067811865475
 10
18.00000000000001
 20
20.81249999999999
 30
23.64937021176686
 41
1.0
 10
19.18750000000001
 20
20.81249999999999
 30
23.64937021176687
 41
0.7071067811865475
 10
19.1875
 20
21.99999999999999
 30
23.64937021176686
 41
1.0
 10
19.18750000000001
 20
23.18749999999999
 30
23.64937021176686
 41
0.7071067811865475
 10
18.00000000000001
 20
23.18749999999999
 30
23.64937021176686
 41
1.0
 10
16.81250000000001
 20
23.18749999999999
 30
23.64937021176686
 41
0.7071067811865475
 10
16.8125
 20
21.99999999999999
 30
23.64937021176686
 41
1.0
  0
SPLINE
  5
C3
330
1F
100
AcDbEntity
  8
Layer 01
100
AcDbSpline
210
2.991758490780353E-15
220
-0.0005149259622621771
230
-0.9999998674256179
 70
    15
 71
     2
 72
    12
 73
     9
 74
     0
 42
0.0000000001
 43
0.0000000001
 40
-7.461282552275758
 40
-7.461282552275758
 40
-7.461282552275758
 40
-5.595961914206819
 40
-5.595961914206819
 40
-3.730641276137879
 40
-3.730641276137879
 40
-1.86532063806894
 40
-1.86532063806894
 40
0.0
 40
0.0
 40
0.0
 10
16.8125
 20
22.00006627028383
 30
22.89182157903389
 41
1.0
 10
16.81249999999999
 20
20.81255315434472
 30
22.89243306044888
 41
0.7071067811865476
 10
18.0
 20
20.81255315434472
 30
22.89243306044888
 41
1.0
 10
19.1875
 20
20.81255315434472
 30
22.89243306044888
 41
0.7071067811865476
 10
19.1875
 20
22.00006627028383
 30
22.89182157903389
 41
1.0
 10
19.1875
 20
23.18757938622296
 30
22.8912100976189
 41
0.7071067811865476
 10
18.0
 20
23.18757938622295
 30
22.8912100976189
 41
1.0
 10
16.81249999999999
 20
23.18757938622295
 30
22.8912100976189
 41
0.7071067811865476
 10
16.8125
 20
22.00006627028383
 30
22.89182157903389
 41
1.0
  0
SPLINE
  5
C4
330
1F
100
AcDbEntity
  8
Layer 01
100
AcDbSpline
210
0.0
220
0.0
230
1.0
 70
    15
 71
     2
 72
    12
 73
     9
 74
     0
 42
0.0000000001
 43
0.0000000001
 40
-7.461282552275758
 40
-7.461282552275758
 40
-7.461282552275758
 40
-5.595961914206819
 40
-5.595961914206819
 40
-3.730641276137879
 40
-3.730641276137879
 40
-1.86532063806894
 40
-1.86532063806894
 40
0.0
 40
0.0
 40
0.0
 10
16.8125
 20
21.99999999999998
 30
19.8614793451088
 41
1.0
 10
16.8125
 20
20.81249999999999
 30
19.8614793451088
 41
0.7071067811865476
 10
18.0
 20
20.81249999999998
 30
19.8614793451088
 41
1.0
 10
19.1875
 20
20.81249999999999
 30
19.8614793451088
 41
0.7071067811865476
 10
19.1875
 20
21.99999999999998
 30
19.8614793451088
 41
1.0
 10
19.1875
 20
23.18749999999998
 30
19.86147934510881
 41
0.7071067811865476
 10
18.0
 20
23.18749999999997
 30
19.8614793451088
 41
1.0
 10
16.8125
 20
23.18749999999998
 30
19.86147934510881
 41
0.7071067811865476
 10
16.8125
 20
21.99999999999998
 30
19.8614793451088
 41
1.0
  0
SPLINE
  5
C5
330
1F
100
AcDbEntity
  8
Layer 01
100
AcDbSpline
210
0.0
220
0.0
230
1.0
 70
    15
 71
     2
 72
    12
 73
     9
 74
     0
 42
0.0000000001
 43
0.0000000001
 40
-7.461282552275758
 40
-7.461282552275758
 40
-7.461282552275758
 40
-5.595961914206819
 40
-5.595961914206819
 40
-3.730641276137879
 40
-3.730641276137879
 40
-1.86532063806894
 40
-1.86532063806894
 40
0.0
 40
0.0
 40
0.0
 10
16.8125
 20
21.99999999999999
 30
16.83112264002829
 41
1.0
 10
16.81249999999999
 20
20.81249999999998
 30
16.83112264002828
 41
0.7071067811865477
 10
18.0
 20
20.81249999999999
 30
16.83112264002828
 41
1.0
 10
19.1875
 20
20.81249999999998
 30
16.83112264002828
 41
0.7071067811865477
 10
19.1875
 20
21.99999999999999
 30
16.83112264002828
 41
1.0
 10
19.1875
 20
23.18749999999998
 30
16.83112264002828
 41
0.7071067811865477
 10
18.0
 20
23.18749999999998
 30
16.83112264002828
 41
1.0
 10
16.81249999999999
 20
23.18749999999998
 30
16.83112264002828
 41
0.7071067811865477
 10
16.8125
 20
21.99999999999999
 30
16.83112264002829
 41
1.0
  0
SPLINE
  5
C6
330
1F
100
AcDbEntity
  8
Layer 01
100
AcDbSpline
210
1.869842159983507E-15
220
9.552421341323786E-6
230
-0.9999999999543756
 70
    15
 71
     2
 72
    12
 73
     9
 74
     0
 42
0.0000000001
 43
0.0000000001
 40
-7.461282552275758
 40
-7.461282552275758
 40
-7.461282552275758
 40
-5.595961914206819
 40
-5.595961914206819
 40
-3.730641276137879
 40
-3.730641276137879
 40
-1.86532063806894
 40
-1.86532063806894
 40
0.0
 40
0.0
 40
0.0
 10
16.8125
 20
21.99999877063011
 30
13.80091550297705
 41
0.9999999999999999
 10
16.8125
 20
20.81249901394188
 30
13.80090415947903
 41
0.7071067811865475
 10
18.0
 20
20.81249901394188
 30
13.80090415947903
 41
0.9999999999999999
 10
19.18750000000001
 20
20.81249901394188
 30
13.80090415947903
 41
0.7071067811865475
 10
19.1875
 20
21.99999877063011
 30
13.80091550297705
 41
0.9999999999999999
 10
19.18750000000001
 20
23.18749852731833
 30
13.80092684647507
 41
0.7071067811865475
 10
18.0
 20
23.18749852731833
 30
13.80092684647507
 41
0.9999999999999999
 10
16.8125
 20
23.18749852731833
 30
13.80092684647507
 41
0.7071067811865475
 10
16.8125
 20
21.99999877063011
 30
13.80091550297705
 41
0.9999999999999999
  0
SPLINE
  5
C7
330
1F
100
AcDbEntity
  8
Layer 01
100
AcDbSpline
210
0.0
220
0.0
230
1.0
 70
    15
 71
     2
 72
    12
 73
     9
 74
     0
 42
0.0000000001
 43
0.0000000001
 40
-7.461282552275758
 40
-7.461282552275758
 40
-7.461282552275758
 40
-5.595961914206819
 40
-5.595961914206819
 40
-3.730641276137879
 40
-3.730641276137879
 40
-1.86532063806894
 40
-1.86532063806894
 40
0.0
 40
0.0
 40
0.0
 10
16.8125
 20
21.99999999999998
 30
7.025608922710343
 41
0.9999999999999999
 10
16.81249999999999
 20
20.81249999999999
 30
7.025608922710343
 41
0.7071067811865476
 10
17.99999999999999
 20
20.81249999999999
 30
7.025608922710342
 41
0.9999999999999999
 10
19.1875
 20
20.81249999999999
 30
7.025608922710343
 41
0.7071067811865476
 10
19.1875
 20
21.99999999999998
 30
7.025608922710343
 41
0.9999999999999999
 10
19.18749999999999
 20
23.18749999999998
 30
7.025608922710344
 41
0.7071067811865476
 10
17.99999999999999
 20
23.18749999999999
 30
7.025608922710343
 41
0.9999999999999999
 10
16.81249999999999
 20
23.18749999999998
 30
7.025608922710344
 41
0.7071067811865476
 10
16.8125
 20
21.99999999999998
 30
7.025608922710343
 41
0.9999999999999999
  0
SPLINE
  5
C8
330
1F
100
AcDbEntity
  8
Layer 01
100
AcDbSpline
 70
     7
 71
     3
 72
    15
 73
    11
 74
     0
 42
0.0000000001
 43
0.0000000001
 40
0.0
 40
0.0
 40
0.0
 40
0.0
 40
1.091769945076852
 40
2.257946509181819
 40
3.34971644852865
 40
4.515893016450115
 40
5.607662986009495
 40
6.77383956392447
 40
7.865609540909866
 40
9.031786109500095
 40
9.031786109500095
 40
9.031786109500095
 40
9.031786109500095
 10
16.73927669529334
 20
22.00000000224255
 30
0.3232233047019978
 41
0.8535533905932744
 10
16.73781272020667
 20
21.68160906181166
 30
0.3232233033195805
 41
0.8535533935708619
 10
17.0021734749622
 20
21.021056017375
 30
0.3232233009918264
 41
0.8535533976739906
 10
17.9771753995101
 20
20.60212168364997
 30
0.3232233001070157
 41
0.8535534000347265
 10
18.97908632061377
 20
21.00194324691881
 30
0.3232233009259579
 41
0.8535533979644914
 10
19.39771013112057
 20
21.9773460275239
 30
0.3232233043574582
 41
0.8535533915430733
 10
18.99830278512298
 20
22.97885355575136
 30
0.3232233093582357
 41
0.8535533809319731
 10
18.02222336293176
 20
23.398109221051
 30
0.3232233120439265
 41
0.8535533761275208
 10
17.02200058145915
 20
22.9975529196639
 30
0.3232233095061469
 41
0.8535533804195125
 10
16.7372622793127
 20
22.34125397971613
 30
0.3232233061154584
 41
0.8535533881350215
 10
16.73927669529334
 20
22.00000000224255
 30
0.3232233047019978
 41
0.8535533905932742
  0
SPLINE
  5
C9
330
1F
100
AcDbEntity
  8
Layer 01
100
AcDbSpline
210
0.6886700326869543
220
-0.7250748830837744
230
1.204748791589088E-8
 70
    12
 71
     2
 72
     6
 73
     3
 74
     0
 42
0.0000000001
 43
0.0000000001
 40
0.0
 40
0.0
 40
0.0
 40
1.0
 40
1.0
 40
1.0
 10
16.95705415944089
 20
21.00941879246657
 30
0.2499999999999998
 41
1.0
 10
17.13843604035532
 20
21.18169377919195
 30
0.2499999999283194
 41
0.7071067939030549
 10
17.13843604491515
 20
21.18169378767671
 30
0.4999999909355675
 41
1.0
  0
SPLINE
  5
CA
330
1F
100
AcDbEntity
  8
Layer 01
100
AcDbSpline
210
-0.9999999813971315
220
0.0001928878854808006
230
2.933558549718109E-10
 70
    12
 71
     2
 72
     6
 73
     3
 74
     0
 42
0.0000000001
 43
0.0000000001
 40
0.0
 40
0.0
 40
0.0
 40
1.0
 40
1.0
 40
1.0
 10
17.99972254661731
 20
20.56158239643413
 30
0.2499999999999995
 41
0.9999999999999999
 10
17.99977079936928
 20
20.81174196941637
 30
0.2500000000238331
 41
0.7071067985970674
 10
17.99977079944509
 20
20.81174198223415
 30
0.4999999877910007
 41
0.9999999999999999
  0
SPLINE
  5
CB
330
1F
100
AcDbEntity
  8
Layer 01
100
AcDbSpline
210
0.7250433630358948
220
0.6887032174439142
230
-1.436639469008424E-8
 70
    12
 71
     2
 72
     6
 73
     3
 74
     0
 42
0.0000000001
 43
0.0000000001
 40
0.0
 40
0.0
 40
0.0
 40
1.0
 40
1.0
 40
1.0
 10
18.99064805323462
 20
20.95707934867365
 30
0.2499999999999997
 41
1.0
 10
18.81836143931044
 20
21.13845684597833
 30
0.249999999925734
 41
0.707106794633333
 10
18.81836143496422
 20
21.13845685576889
 30
0.4999999905319276
 41
1.0
  0
SPLINE
  5
CC
330
1F
100
AcDbEntity
  8
Layer 01
100
AcDbSpline
210
0.0001639537240222284
220
0.9999999865595877
230
-2.873465571294199E-8
 70
    12
 71
     2
 72
     6
 73
     3
 74
     0
 42
0.0000000001
 43
0.0000000001
 40
0.0
 40
0.0
 40
0.0
 40
1.0
 40
1.0
 40
1.0
 10
19.43836471353816
 20
21.99976415035717
 30
0.2499999999999993
 41
0.9999999999999999
 10
19.18821432924818
 20
21.99980516344479
 30
0.2500000000213436
 41
0.7071067813771217
 10
19.18821432856915
 20
21.99980517062857
 30
0.4999999999736424
 41
0.9999999999999999
  0
SPLINE
  5
CD
330
1F
100
AcDbEntity
  8
Layer 01
100
AcDbSpline
210
-0.6886509551705193
220
0.7250930022712471
230
-2.745383533968790E-8
 70
    12
 71
     2
 72
     6
 73
     3
 74
     0
 42
0.0000000001
 43
0.0000000001
 40
0.0
 40
0.0
 40
0.0
 40
1.0
 40
1.0
 40
1.0
 10
19.0429965167593
 20
22.99057710289164
 30
0.2499999999999998
 41
0.9999999999999999
 10
18.86160581332784
 20
22.8183028142337
 30
0.2499999999277872
 41
0.7071067640826202
 10
18.86160581786217
 20
22.81830282800577
 30
0.5000000119318397
 41
0.9999999999999999
  0
SPLINE
  5
CE
330
1F
100
AcDbEntity
  8
Layer 01
100
AcDbSpline
210
0.999999996277589
220
-8.628338166038164E-5
230
-7.158754390326816E-10
 70
    12
 71
     2
 72
     6
 73
     3
 74
     0
 42
0.0000000001
 43
0.0000000001
 40
0.0
 40
0.0
 40
0.0
 40
1.0
 40
1.0
 40
1.0
 10
18.00012411643137
 20
23.43847578903621
 30
0.2499999999999999
 41
1.0
 10
18.00010253094202
 20
23.18830607086403
 30
0.2500000000134051
 41
0.7071067552792722
 10
18.00010253112266
 20
23.18830609028792
 30
0.5000000182801074
 41
1.0
  0
SPLINE
  5
CF
330
1F
100
AcDbEntity
  8
Layer 01
100
AcDbSpline
210
-0.7250834202563075
220
-0.6886610441061805
230
1.979693981648104E-8
 70
    12
 71
     2
 72
     6
 73
     3
 74
     0
 42
0.0000000001
 43
0.0000000001
 40
0.0
 40
0.0
 40
0.0
 40
1.0
 40
1.0
 40
1.0
 10
17.00957124270732
 20
23.04281121174488
 30
0.25
 41
1.0
 10
17.18181972772118
 20
22.86145273108634
 30
0.2499999999327899
 41
0.7071067629367961
 10
17.1818197223728
 20
22.86145274390434
 30
0.5000000126377185
 41
1.0
  0
SPLINE
  5
D0
330
1F
100
AcDbEntity
  8
Layer 01
100
AcDbSpline
210
-1.0
220
0.0
230
0.0
 70
    15
 71
     2
 72
    12
 73
     9
 74
     0
 42
0.0000000001
 43
0.0000000001
 40
0.0
 40
0.0
 40
0.0
 40
2.462210715932685
 40
2.462210715932685
 40
4.92442143186537
 40
4.92442143186537
 40
7.386632147798054
 40
7.386632147798054
 40
9.84884286373074
 40
9.84884286373074
 40
9.84884286373074
 10
-2.0
 20
-16.125
 30
3.0
 41
1.0
 10
-2.0
 20
-17.68750000000003
 30
2.875000000000011
 41
0.7071067811865476
 10
-2.0
 20
-17.56250000000004
 30
1.312499999999981
 41
1.0
 10
-2.0
 20
-17.43750000000005
 30
-0.2500000000000489
 41
0.7071067811865476
 10
-2.0
 20
-15.87500000000002
 30
-0.1250000000000595
 41
1.0
 10
-2.0
 20
-14.31249999999999
 30
-0.0000000000000705
 41
0.7071067811865476
 10
-2.0
 20
-14.43749999999998
 30
1.562499999999959
 41
1.0
 10
-2.0
 20
-14.56249999999997
 30
3.124999999999988
 41
0.7071067811865476
 10
-2.0
 20
-16.125
 30
3.0
 41
1.0
  0
SPLINE
  5
D1
330
1F
100
AcDbEntity
  8
Layer 01
100
AcDbSpline
210
1.0
220
0.0
230
0.0
 70
    15
 71
     2
 72
    12
 73
     9
 74
     0
 42
0.0000000001
 43
0.0000000001
 40
-7.853981633974485
 40
-7.853981633974485
 40
-7.853981633974485
 40
-5.890486225480863
 40
-5.890486225480863
 40
-3.926990816987242
 40
-3.926990816987242
 40
-1.963495408493621
 40
-1.963495408493621
 40
0.0
 40
0.0
 40
0.0
 10
-2.0
 20
-16.09968152785361
 30
2.683519098170128
 41
1.0
 10
-2.0
 20
-14.85366242968345
 30
2.783200626023729
 41
0.7071067811865476
 10
-2.0
 20
-14.75398090182985
 30
1.537181527853572
 41
1.0
 10
-2.0
 20
-14.65429937397625
 30
0.2911624296834149
 41
0.7071067811865476
 10
-2.0
 20
-15.90031847214641
 30
0.1914809018298129
 41
1.0
 10
-2.0
 20
-17.14633757031656
 30
0.091799373976211
 41
0.7071067811865476
 10
-2.0
 20
-17.24601909817017
 30
1.337818472146368
 41
1.0
 10
-2.0
 20
-17.34570062602377
 30
2.583837570316526
 41
0.7071067811865476
 10
-2.0
 20
-16.09968152785361
 30
2.683519098170128
 41
1.0
  0
LINE
  5
D2
330
1F
100
AcDbEntity
  8
Layer 01
100
AcDbLine
 10
-2.0
 20
-16.125
 30
3.0
 11
2.0
 21
-16.125
 31
3.0
  0
SPLINE
  5
D3
330
1F
100
AcDbEntity
  8
Layer 01
100
AcDbSpline
210
-1.0
220
0.0
230
0.0
 70
    15
 71
     2
 72
    12
 73
     9
 74
     0
 42
0.0000000001
 43
0.0000000001
 40
0.0
 40
0.0
 40
0.0
 40
2.462210715932685
 40
2.462210715932685
 40
4.92442143186537
 40
4.92442143186537
 40
7.386632147798054
 40
7.386632147798054
 40
9.84884286373074
 40
9.84884286373074
 40
9.84884286373074
 10
2.0
 20
-16.125
 30
3.0
 41
1.0
 10
1.999999999999999
 20
-17.68750000000003
 30
2.875000000000011
 41
0.7071067811865476
 10
2.0
 20
-17.56250000000004
 30
1.312499999999981
 41
1.0
 10
1.999999999999999
 20
-17.43750000000005
 30
-0.2500000000000489
 41
0.7071067811865476
 10
2.0
 20
-15.87500000000002
 30
-0.1250000000000595
 41
1.0
 10
1.999999999999999
 20
-14.31249999999999
 30
-0.0000000000000705
 41
0.7071067811865476
 10
2.0
 20
-14.43749999999998
 30
1.562499999999959
 41
1.0
 10
1.999999999999999
 20
-14.56249999999997
 30
3.124999999999988
 41
0.7071067811865476
 10
2.0
 20
-16.125
 30
3.0
 41
1.0
  0
LINE
  5
D4
330
1F
100
AcDbEntity
  8
Layer 01
100
AcDbLine
 10
-2.0
 20
-16.09968152785361
 30
2.683519098170128
 11
2.0
 21
-16.09968152785361
 31
2.683519098170128
  0
SPLINE
  5
D5
330
1F
100
AcDbEntity
  8
Layer 01
100
AcDbSpline
210
1.0
220
0.0
230
0.0
 70
    15
 71
     2
 72
    12
 73
     9
 74
     0
 42
0.0000000001
 43
0.0000000001
 40
-7.853981633974485
 40
-7.853981633974485
 40
-7.853981633974485
 40
-5.890486225480863
 40
-5.890486225480863
 40
-3.926990816987242
 40
-3.926990816987242
 40
-1.963495408493621
 40
-1.963495408493621
 40
0.0
 40
0.0
 40
0.0
 10
2.0
 20
-16.09968152785361
 30
2.683519098170128
 41
1.0
 10
1.999999999999999
 20
-14.85366242968345
 30
2.783200626023729
 41
0.7071067811865476
 10
2.0
 20
-14.75398090182985
 30
1.537181527853572
 41
1.0
 10
1.999999999999999
 20
-14.65429937397625
 30
0.2911624296834149
 41
0.7071067811865476
 10
2.0
 20
-15.90031847214641
 30
0.1914809018298129
 41
1.0
 10
1.999999999999999
 20
-17.14633757031656
 30
0.091799373976211
 41
0.7071067811865476
 10
2.0
 20
-17.24601909817017
 30
1.337818472146368
 41
1.0
 10
1.999999999999999
 20
-17.34570062602377
 30
2.583837570316526
 41
0.7071067811865476
 10
2.0
 20
-16.09968152785361
 30
2.683519098170128
 41
1.0
  0
LINE
  5
D6
330
1F
100
AcDbEntity
  8
Layer 01
100
AcDbLine
 10
-2.0
 20
-17.5674920254981
 30
1.437499999999969
 11
-2.0
 21
-17.25000000000001
 31
1.437499999999969
  0
LINE
  5
D7
330
1F
100
AcDbEntity
  8
Layer 01
100
AcDbLine
 10
-2.0
 20
-14.75000000000001
 30
1.43749999999997
 11
-2.0
 21
-14.43250797450193
 31
1.437499999999971
  0
LINE
  5
D8
330
1F
100
AcDbEntity
  8
Layer 01
100
AcDbLine
 10
-2.0
 20
-16.00000000000001
 30
-0.1299920254981148
 11
-2.0
 21
-16.00000000000001
 31
0.1874999999999707
  0
LINE
  5
D9
330
1F
100
AcDbEntity
  8
Layer 01
100
AcDbLine
 10
-2.0
 20
-16.00000000000001
 30
2.687499999999971
 11
-2.0
 21
-16.00000000000001
 31
3.004992025498056
  0
SPLINE
  5
DA
330
1F
100
AcDbEntity
  8
Layer 01
100
AcDbSpline
210
-1.0
220
0.0
230
0.0
 70
    15
 71
     2
 72
    12
 73
     9
 74
     0
 42
0.0000000001
 43
0.0000000001
 40
-9.84884286373074
 40
-9.84884286373074
 40
-9.84884286373074
 40
-7.386632147798054
 40
-7.386632147798054
 40
-4.92442143186537
 40
-4.92442143186537
 40
-2.462210715932685
 40
-2.462210715932685
 40
0.0
 40
0.0
 40
0.0
 10
0.0
 20
-16.125
 30
2.999999999999999
 41
1.0
 10
0.0
 20
-14.56249999999997
 30
3.124999999999987
 41
0.7071067811865476
 10
0.0
 20
-14.43749999999998
 30
1.562499999999958
 41
1.0
 10
0.0
 20
-14.31249999999999
 30
-0.0000000000000718
 41
0.7071067811865476
 10
0.0
 20
-15.87500000000002
 30
-0.1250000000000609
 41
1.0
 10
0.0
 20
-17.43750000000005
 30
-0.2500000000000502
 41
0.7071067811865476
 10
0.0
 20
-17.56250000000004
 30
1.31249999999998
 41
1.0
 10
0.0
 20
-17.68750000000003
 30
2.87500000000001
 41
0.7071067811865476
 10
0.0
 20
-16.125
 30
2.999999999999999
 41
1.0
  0
LINE
  5
DB
330
1F
100
AcDbEntity
  8
Layer 01
100
AcDbLine
 10
-2.0
 20
-14.43749999999998
 30
1.562499999999958
 11
2.0
 21
-14.43749999999998
 31
1.562499999999958
  0
LINE
  5
DC
330
1F
100
AcDbEntity
  8
Layer 01
100
AcDbLine
 10
-2.0
 20
-15.87500000000002
 30
-0.1250000000000608
 11
2.0
 21
-15.87500000000002
 31
-0.1250000000000608
  0
LINE
  5
DD
330
1F
100
AcDbEntity
  8
Layer 01
100
AcDbLine
 10
-2.0
 20
-17.56250000000004
 30
1.31249999999998
 11
2.0
 21
-17.56250000000004
 31
1.31249999999998
  0
SPLINE
  5
DE
330
1F
100
AcDbEntity
  8
Layer 01
100
AcDbSpline
210
1.0
220
0.0
230
0.0
 70
    15
 71
     2
 72
    12
 73
     9
 74
     0
 42
0.0000000001
 43
0.0000000001
 40
0.0
 40
0.0
 40
0.0
 40
1.963495408493621
 40
1.963495408493621
 40
3.926990816987242
 40
3.926990816987242
 40
5.890486225480863
 40
5.890486225480863
 40
7.853981633974485
 40
7.853981633974485
 40
7.853981633974485
 10
0.0
 20
-16.09968152785362
 30
2.683519098170129
 41
1.0
 10
0.0
 20
-17.34570062602378
 30
2.583837570316527
 41
0.7071067811865476
 10
0.0
 20
-17.24601909817017
 30
1.337818472146369
 41
1.0
 10
0.0
 20
-17.14633757031657
 30
0.0917993739762123
 41
0.7071067811865476
 10
0.0
 20
-15.90031847214642
 30
0.1914809018298143
 41
1.0
 10
0.0
 20
-14.65429937397626
 30
0.2911624296834162
 41
0.7071067811865476
 10
0.0
 20
-14.75398090182986
 30
1.537181527853574
 41
1.0
 10
0.0
 20
-14.85366242968346
 30
2.78320062602373
 41
0.7071067811865476
 10
0.0
 20
-16.09968152785362
 30
2.683519098170129
 41
1.0
  0
LINE
  5
DF
330
1F
100
AcDbEntity
  8
Layer 01
100
AcDbLine
 10
-2.0
 20
-17.24601909817017
 30
1.337818472146369
 11
2.0
 21
-17.24601909817017
 31
1.337818472146369
  0
LINE
  5
E0
330
1F
100
AcDbEntity
  8
Layer 01
100
AcDbLine
 10
-2.0
 20
-15.90031847214642
 30
0.1914809018298143
 11
2.0
 21
-15.90031847214642
 31
0.1914809018298143
  0
LINE
  5
E1
330
1F
100
AcDbEntity
  8
Layer 01
100
AcDbLine
 10
-2.0
 20
-14.75398090182986
 30
1.537181527853574
 11
2.0
 21
-14.75398090182986
 31
1.537181527853574
  0
LINE
  5
E2
330
1F
100
AcDbEntity
  8
Layer 01
100
AcDbLine
 10
2.0
 20
-17.5674920254981
 30
1.437499999999969
 11
2.0
 21
-17.25000000000001
 31
1.437499999999969
  0
LINE
  5
E3
330
1F
100
AcDbEntity
  8
Layer 01
100
AcDbLine
 10
2.0
 20
-14.75000000000001
 30
1.43749999999997
 11
2.0
 21
-14.43250797450193
 31
1.437499999999971
  0
LINE
  5
E4
330
1F
100
AcDbEntity
  8
Layer 01
100
AcDbLine
 10
2.0
 20
-16.00000000000001
 30
-0.1299920254981148
 11
2.0
 21
-16.00000000000001
 31
0.1874999999999707
  0
LINE
  5
E5
330
1F
100
AcDbEntity
  8
Layer 01
100
AcDbLine
 10
2.0
 20
-16.00000000000001
 30
2.687499999999971
 11
2.0
 21
-16.00000000000001
 31
3.004992025498056
  0
ENDSEC
  0
SECTION
  2
OBJECTS
  0
DICTIONARY
  5
C
330
0
100
AcDbDictionary
281
     1
  3
ACAD_GROUP
350
D
  3
ACAD_LAYOUT
350
1A
  3
ACAD_MLEADERSTYLE
350
E7
  3
ACAD_MLINESTYLE
350
17
  3
ACAD_PLOTSETTINGS
350
19
  3
ACAD_PLOTSTYLENAME
350
E
  3
ACAD_TABLESTYLE
350
E6
  3
ACAD_VISUALSTYLE
350
2A
  0
DICTIONARY
  5
D
102
{ACAD_REACTORS
330
C
102
}
330
C
100
AcDbDictionary
281
     1
  0
DICTIONARY
  5
1A
102
{ACAD_REACTORS
330
C
102
}
330
C
100
AcDbDictionary
281
     1
  3
Layout1
350
1E
  3
Layout2
350
26
  3
Model
350
22
  0
DICTIONARY
  5
E7
102
{ACAD_REACTORS
330
C
102
}
330
C
100
AcDbDictionary
281
     1
  0
DICTIONARY
  5
17
102
{ACAD_REACTORS
330
C
102
}
330
C
100
AcDbDictionary
281
     1
  3
Standard
350
18
  0
DICTIONARY
  5
19
102
{ACAD_REACTORS
330
C
102
}
330
C
100
AcDbDictionary
281
     1
  0
ACDBDICTIONARYWDFLT
  5
E
102
{ACAD_REACTORS
330
C
102
}
330
C
100
AcDbDictionary
281
     1
  3
Normal
350
F
100
AcDbDictionaryWithDefault
340
F
  0
DICTIONARY
  5
E6
102
{ACAD_REACTORS
330
C
102
}
330
C
100
AcDbDictionary
281
     1
  0
DICTIONARY
  5
2A
102
{ACAD_REACTORS
330
C
102
}
330
C
100
AcDbDictionary
281
     1
  3
2dWireframe
350
2F
  3
3D Hidden
350
31
  3
3dWireframe
350
30
  3
Basic
350
32
  3
Brighten
350
36
  3
ColorChange
350
3A
  3
Conceptual
350
34
  3
Dim
350
35
  3
Facepattern
350
39
  3
Flat
350
2B
  3
FlatWithEdges
350
2C
  3
Gouraud
350
2D
  3
GouraudWithEdges
350
2E
  3
Linepattern
350
38
  3
Realistic
350
33
  3
Thicken
350
37
  0
LAYOUT
  5
1E
102
{ACAD_REACTORS
330
1A
102
}
330
1A
100
AcDbPlotSettings
  1

  2
none_device
  4

  6

 40
0.0
 41
0.0
 42
0.0
 43
0.0
 44
0.0
 45
0.0
 46
0.0
 47
0.0
 48
0.0
 49
0.0
140
0.0
141
0.0
142
1.0
143
1.0
 70
   688
 72
     0
 73
     0
 74
     5
  7

 75
    16
 76
     0
 77
     2
 78
   300
147
1.0
148
0.0
149
0.0
100
AcDbLayout
  1
Layout1
 70
     1
 71
     1
 10
0.0
 20
0.0
 11
12.0
 21
9.0
 12
0.0
 22
0.0
 32
0.0
 14
1.000000000000000E+20
 24
1.000000000000000E+20
 34
1.000000000000000E+20
 15
-1.000000000000000E+20
 25
-1.000000000000000E+20
 35
-1.000000000000000E+20
146
0.0
 13
0.0
 23
0.0
 33
0.0
 16
1.0
 26
0.0
 36
0.0
 17
0.0
 27
1.0
 37
0.0
 76
     0
330
1B
  0
LAYOUT
  5
26
102
{ACAD_REACTORS
330
1A
102
}
330
1A
100
AcDbPlotSettings
  1

  2
none_device
  4

  6

 40
0.0
 41
0.0
 42
0.0
 43
0.0
 44
0.0
 45
0.0
 46
0.0
 47
0.0
 48
0.0
 49
0.0
140
0.0
141
0.0
142
1.0
143
1.0
 70
   688
 72
     0
 73
     0
 74
     5
  7

 75
    16
 76
     0
 77
     2
 78
   300
147
1.0
148
0.0
149
0.0
100
AcDbLayout
  1
Layout2
 70
     1
 71
     2
 10
0.0
 20
0.0
 11
0.0
 21
0.0
 12
0.0
 22
0.0
 32
0.0
 14
0.0
 24
0.0
 34
0.0
 15
0.0
 25
0.0
 35
0.0
146
0.0
 13
0.0
 23
0.0
 33
0.0
 16
1.0
 26
0.0
 36
0.0
 17
0.0
 27
1.0
 37
0.0
 76
     0
330
23
  0
LAYOUT
  5
22
102
{ACAD_REACTORS
330
1A
102
}
330
1A
100
AcDbPlotSettings
  1

  2
none_device
  4

  6

 40
0.0
 41
0.0
 42
0.0
 43
0.0
 44
0.0
 45
0.0
 46
0.0
 47
0.0
 48
0.0
 49
0.0
140
0.0
141
0.0
142
1.0
143
1.0
 70
  1712
 72
     0
 73
     0
 74
     0
  7

 75
     0
 76
     0
 77
     2
 78
   300
147
1.0
148
0.0
149
0.0
100
AcDbLayout
  1
Model
 70
     1
 71
     0
 10
0.0
 20
0.0
 11
12.0
 21
9.0
 12
0.0
 22
0.0
 32
0.0
 14
-19.5
 24
-17.5674920254981
 34
-0.1299920254981148
 15
19.5
 25
23.99999999999999
 35
32.13952198462911
146
0.0
 13
0.0
 23
0.0
 33
0.0
 16
1.0
 26
0.0
 36
0.0
 17
0.0
 27
1.0
 37
0.0
 76
     0
330
1F
331
29
  0
MLINESTYLE
  5
18
102
{ACAD_REACTORS
330
17
102
}
330
17
100
AcDbMlineStyle
  2
Standard
 70
     0
  3

 62
   256
 51
90.0
 52
90.0
 71
     2
 49
0.5
 62
   256
  6
BYLAYER
 49
-0.5
 62
   256
  6
BYLAYER
  0
ACDBPLACEHOLDER
  5
F
102
{ACAD_REACTORS
330
E
102
}
330
E
  0
VISUALSTYLE
  5
2F
102
{ACAD_REACTORS
330
2A
102
}
330
2A
100
AcDbVisualStyle
  2
2dWireframe
 70
     4
 71
     0
 72
     2
 73
     0
 90
        0
 40
-0.6
 41
-30.0
 62
     5
 63
     7
421
 16777215
 74
     1
 91
        4
 64
     7
 65
   257
 75
     1
175
     1
 42
1.0
 92
        0
 66
   257
 43
1.0
 76
     1
 77
     6
 78
     2
 67
     7
 79
     5
170
     0
171
     0
290
     0
174
     0
 93
        1
 44
0.0
173
     0
291
     0
 45
0.0
1001
ACAD
1000
AcDbSavedByObjectVersion
1070
     0
  0
VISUALSTYLE
  5
31
102
{ACAD_REACTORS
330
2A
102
}
330
2A
100
AcDbVisualStyle
  2
3D Hidden
 70
     6
 71
     1
 72
     2
 73
     2
 90
        0
 40
-0.6
 41
-30.0
 62
     5
 63
     7
421
 16777215
 74
     2
 91
        2
 64
     7
 65
   257
 75
     2
175
     1
 42
40.0
 92
        0
 66
   257
 43
1.0
 76
     1
 77
     6
 78
     2
 67
     7
 79
     3
170
     0
171
     0
290
     0
174
     0
 93
        1
 44
0.0
173
     0
291
     0
 45
0.0
1001
ACAD
1000
AcDbSavedByObjectVersion
1070
     0
  0
VISUALSTYLE
  5
30
102
{ACAD_REACTORS
330
2A
102
}
330
2A
100
AcDbVisualStyle
  2
3dWireframe
 70
     5
 71
     0
 72
     2
 73
     0
 90
        0
 40
-0.6
 41
-30.0
 62
     5
 63
     7
421
 16777215
 74
     1
 91
        4
 64
     7
 65
   257
 75
     1
175
     1
 42
1.0
 92
        0
 66
   257
 43
1.0
 76
     1
 77
     6
 78
     2
 67
     7
 79
     5
170
     0
171
     0
290
     0
174
     0
 93
        1
 44
0.0
173
     0
291
     0
 45
0.0
1001
ACAD
1000
AcDbSavedByObjectVersion
1070
     0
  0
VISUALSTYLE
  5
32
102
{ACAD_REACTORS
330
2A
102
}
330
2A
100
AcDbVisualStyle
  2
Basic
 70
     7
 71
     1
 72
     0
 73
     1
 90
        0
 40
-0.6
 41
-30.0
 62
     5
 63
     7
421
 16777215
 74
     0
 91
        4
 64
     7
 65
   257
 75
     1
175
     1
 42
1.0
 92
        8
 66
     7
 43
1.0
 76
     1
 77
     6
 78
     2
 67
     7
 79
     5
170
     0
171
     0
290
     0
174
     0
 93
        1
 44
0.0
173
     0
291
     1
 45
0.0
1001
ACAD
1000
AcDbSavedByObjectVersion
1070
     0
  0
VISUALSTYLE
  5
36
102
{ACAD_REACTORS
330
2A
102
}
330
2A
100
AcDbVisualStyle
  2
Brighten
 70
    12
 71
     2
 72
     2
 73
     0
 90
        0
 40
-0.6
 41
-30.0
 62
     5
 63
     7
421
 16777215
 74
     1
 91
        4
 64
     7
 65
   257
 75
     1
175
     1
 42
1.0
 92
        8
 66
     7
 43
1.0
 76
     1
 77
     6
 78
     2
 67
     7
 79
     5
170
     0
171
     0
290
     0
174
     0
 93
        1
 44
50.0
173
     0
291
     1
 45
0.0
1001
ACAD
1000
AcDbSavedByObjectVersion
1070
     0
  0
VISUALSTYLE
  5
3A
102
{ACAD_REACTORS
330
2A
102
}
330
2A
100
AcDbVisualStyle
  2
ColorChange
 70
    16
 71
     2
 72
     2
 73
     3
 90
        0
 40
-0.6
 41
-30.0
 62
     5
 63
     8
421
  8421504
 74
     1
 91
        4
 64
     7
 65
   257
 75
     1
175
     1
 42
1.0
 92
        8
 66
     8
424
  8421504
 43
1.0
 76
     1
 77
     6
 78
     2
 67
     7
 79
     5
170
     0
171
     0
290
     0
174
     0
 93
        1
 44
0.0
173
     0
291
     1
 45
0.0
1001
ACAD
1000
AcDbSavedByObjectVersion
1070
     0
  0
VISUALSTYLE
  5
34
102
{ACAD_REACTORS
330
2A
102
}
330
2A
100
AcDbVisualStyle
  2
Conceptual
 70
     9
 71
     3
 72
     2
 73
     0
 90
        0
 40
-0.6
 41
-30.0
 62
     5
 63
     7
421
 16777215
 74
     2
 91
        2
 64
     7
 65
   257
 75
     1
175
     1
 42
40.0
 92
        8
 66
     7
 43
1.0
 76
     1
 77
     6
 78
     2
 67
     7
 79
     3
170
     0
171
     0
290
     0
174
     0
 93
        1
 44
0.0
173
     0
291
     0
 45
0.0
1001
ACAD
1000
AcDbSavedByObjectVersion
1070
     0
  0
VISUALSTYLE
  5
35
102
{ACAD_REACTORS
330
2A
102
}
330
2A
100
AcDbVisualStyle
  2
Dim
 70
    11
 71
     2
 72
     2
 73
     0
 90
        0
 40
-0.6
 41
-30.0
 62
     5
 63
     7
421
 16777215
 74
     1
 91
        4
 64
     7
 65
   257
 75
     1
175
     1
 42
1.0
 92
        8
 66
     7
 43
1.0
 76
     1
 77
     6
 78
     2
 67
     7
 79
     5
170
     0
171
     0
290
     0
174
     0
 93
        1
 44
-50.0
173
     0
291
     1
 45
0.0
1001
ACAD
1000
AcDbSavedByObjectVersion
1070
     0
  0
VISUALSTYLE
  5
39
102
{ACAD_REACTORS
330
2A
102
}
330
2A
100
AcDbVisualStyle
  2
Facepattern
 70
    15
 71
     2
 72
     2
 73
     0
 90
        0
 40
-0.6
 41
-30.0
 62
     5
 63
     7
421
 16777215
 74
     1
 91
        4
 64
     7
 65
   257
 75
     1
175
     1
 42
1.0
 92
        8
 66
     7
 43
1.0
 76
     1
 77
     6
 78
     2
 67
     7
 79
     5
170
     0
171
     0
290
     0
174
     0
 93
        1
 44
0.0
173
     0
291
     1
 45
0.0
1001
ACAD
1000
AcDbSavedByObjectVersion
1070
     0
  0
VISUALSTYLE
  5
2B
102
{ACAD_REACTORS
330
2A
102
}
330
2A
100
AcDbVisualStyle
  2
Flat
 70
     0
 71
     2
 72
     1
 73
     1
 90
        2
 40
-0.6
 41
30.0
 62
     5
 63
     7
421
 16777215
 74
     0
 91
        4
 64
     7
 65
   257
 75
     1
175
     1
 42
1.0
 92
        8
 66
     7
 43
1.0
 76
     1
 77
     6
 78
     2
 67
     7
 79
     5
170
     0
171
     0
290
     0
174
     0
 93
       13
 44
0.0
173
     0
291
     1
 45
0.0
1001
ACAD
1000
AcDbSavedByObjectVersion
1070
     0
  0
VISUALSTYLE
  5
2C
102
{ACAD_REACTORS
330
2A
102
}
330
2A
100
AcDbVisualStyle
  2
FlatWithEdges
 70
     1
 71
     2
 72
     1
 73
     1
 90
        2
 40
-0.6
 41
30.0
 62
     5
 63
     7
421
 16777215
 74
     1
 91
        4
 64
     7
 65
   257
 75
     1
175
     1
 42
1.0
 92
        0
 66
   257
 43
1.0
 76
     1
 77
     6
 78
     2
 67
     7
 79
     5
170
     0
171
     0
290
     0
174
     0
 93
       13
 44
0.0
173
     0
291
     1
 45
0.0
1001
ACAD
1000
AcDbSavedByObjectVersion
1070
     0
  0
VISUALSTYLE
  5
2D
102
{ACAD_REACTORS
330
2A
102
}
330
2A
100
AcDbVisualStyle
  2
Gouraud
 70
     2
 71
     2
 72
     2
 73
     1
 90
        2
 40
-0.6
 41
30.0
 62
     5
 63
     7
421
 16777215
 74
     0
 91
        4
 64
     7
 65
   257
 75
     1
175
     1
 42
1.0
 92
        0
 66
     7
 43
1.0
 76
     1
 77
     6
 78
     2
 67
     7
 79
     5
170
     0
171
     0
290
     0
174
     0
 93
       13
 44
0.0
173
     0
291
     1
 45
0.0
1001
ACAD
1000
AcDbSavedByObjectVersion
1070
     0
  0
VISUALSTYLE
  5
2E
102
{ACAD_REACTORS
330
2A
102
}
330
2A
100
AcDbVisualStyle
  2
GouraudWithEdges
 70
     3
 71
     2
 72
     2
 73
     1
 90
        2
 40
-0.6
 41
30.0
 62
     5
 63
     7
421
 16777215
 74
     1
 91
        4
 64
     7
 65
   257
 75
     1
175
     1
 42
1.0
 92
        0
 66
   257
 43
1.0
 76
     1
 77
     6
 78
     2
 67
     7
 79
     5
170
     0
171
     0
290
     0
174
     0
 93
       13
 44
0.0
173
     0
291
     1
 45
0.0
1001
ACAD
1000
AcDbSavedByObjectVersion
1070
     0
  0
VISUALSTYLE
  5
38
102
{ACAD_REACTORS
330
2A
102
}
330
2A
100
AcDbVisualStyle
  2
Linepattern
 70
    14
 71
     2
 72
     2
 73
     0
 90
        0
 40
-0.6
 41
-30.0
 62
     5
 63
     7
421
 16777215
 74
     1
 91
        4
 64
     7
 65
   257
 75
     7
175
     7
 42
1.0
 92
        8
 66
     7
 43
1.0
 76
     1
 77
     6
 78
     2
 67
     7
 79
     5
170
     0
171
     0
290
     0
174
     0
 93
        1
 44
0.0
173
     0
291
     1
 45
0.0
1001
ACAD
1000
AcDbSavedByObjectVersion
1070
     0
  0
VISUALSTYLE
  5
33
102
{ACAD_REACTORS
330
2A
102
}
330
2A
100
AcDbVisualStyle
  2
Realistic
 70
     8
 71
     2
 72
     2
 73
     0
 90
        0
 40
-0.6
 41
-30.0
 62
     5
 63
     7
421
 16777215
 74
     1
 91
        0
 64
     7
 65
   257
 75
     1
175
     1
 42
1.0
 92
        8
 66
     8
424
  7895160
 43
1.0
 76
     1
 77
     6
 78
     2
 67
     7
 79
     5
170
     0
171
     0
290
     0
174
     0
 93
       13
 44
0.0
173
     0
291
     0
 45
0.0
1001
ACAD
1000
AcDbSavedByObjectVersion
1070
     0
  0
VISUALSTYLE
  5
37
102
{ACAD_REACTORS
330
2A
102
}
330
2A
100
AcDbVisualStyle
  2
Thicken
 70
    13
 71
     2
 72
     2
 73
     0
 90
        0
 40
-0.6
 41
-30.0
 62
     5
 63
     7
421
 16777215
 74
     1
 91
        4
 64
     7
 65
   257
 75
     1
175
     1
 42
1.0
 92
       12
 66
     7
 43
1.0
 76
     1
 77
     6
 78
     2
 67
     7
 79
     5
170
     0
171
     0
290
     0
174
     0
 93
        1
 44
0.0
173
     0
291
     1
 45
0.0
1001
ACAD
1000
AcDbSavedByObjectVersion
1070
     0
  0
ENDSEC
  0
EOF
